PrimaNota.ru - самый крупный в мире бесплатный архив песенных текстов, аккордов, табулатур и нот


Verjnuarmu - Laalavat Jouset - таба, видео

Регистрация Запомнить меня
Войти через:  Facebook Google Twitter Vk Yandex Mail.ru

Verjnuarmu - Laalavat Jouset - таба, видео

Печатать
Просмотров: 198
Verjnuarmu - Laalavat Jouset - INTRO

Tuning : D A D G B E

INTRO Keys
---4---6---8---6---4---6---8---6---------|
-6---6---6---6---6---6---6---6---6-------|
-----------------------------------------|
-----------------------------------------|
-----------------------------------------|
-----------------------------------------|

---2---4---6---4---2---4---6---4---2--1---|
-4---4---4---4---4---4---4---4---4--------|
------------------------------------------|
------------------------------------------|
------------------------------------------|
------------------------------------------|
Добавлено: 28.05.2012
Вам также может быть интересно:
Другие материалы по этой песне:
  • Аккорды и текст

Страница создана 28.05.2012
http://primanota.ru/verjnuarmu/laalavat-jouset-chords.htm
Привет, Гость.
Предлагаем пройти революционный курс по гитаре.
Подарок от PrimaNota.Ru, забирай!