PrimaNota.ru - самый крупный в мире бесплатный архив песенных текстов, аккордов, табулатур и нот


Verdena - Ultranoia - таба, бас-таба, видео

Регистрация Запомнить меня
Войти через:  Facebook Google Twitter Vk Yandex Mail.ru

Verdena - Ultranoia - таба, бас-таба, видео

Печатать
Просмотров: 90
		   --------
ULTRANOIA - VERDENA
tabbed by nuke.

Allora, intanto, se volete suonarla insieme al cd, dovete abbassare le
corde di un semitono... poi il ritornello e' tutto in bicordo.
Da notare che intro e riff della strofa differiscono di un particolare
(seconda battuta, 0440 nell'intro, e 0460 nella strofa)...

[intro_on]
g|-----------------|-----------------|-----------------|-
d|-7-7-7-7-7-7-7-7-|-4-4-4-4-4-4-4-4-|-6-6-6-6-6-6-6-6-|---
a|-4-4-4-4-4-4-4-4-|-4-4-4-4-4-4-4-4-|-7-7-7-7-7-7-7-7-|------
e|-----------------|-----------------|-----------------|----

g|-----------------|------------------------|-----------------------|-
d|-9-9-9-9-9-9-9-9-|11-11-11-11-11-11-11-11-|11-11-11-11-11-11-11-11|---
a|-7-7-7-7-7-7-7-7-|-0--0--0--0--0--0--0--0-|-9--9--9--9--9--9--9--9|------
e|-----------------|------------------------|-----------------------|----

g|------------------------|-----------------|-
d|11-11-11-11-11-11-11-11-|-9-9-9-9-9-9-9-9-|---
a|-9--9--9--9--9--9--9--9-|-7-7-7-7-7-7-7-7-|------
e|10-10-10-10-10-10-10-10-|-7-7-7-7-7-7-7-7-|----
[intro_off]

g|-----------------|-----------------|-----------------|-
d|-7-7-7-7-7-7-7-7-|-6-6-6-6-6-6-6-6-|-6-6-6-6-6-6-6-6-|---
a|-4-4-4-4-4-4-4-4-|-4-4-4-4-4-4-4-4-|-7-7-7-7-7-7-7-7-|------
e|-----------------|-----------------|-----------------|----
   No... 			               non ci 
g|-----------------|------------------------|-----------------------|-
d|-9-9-9-9-9-9-9-9-|11-11-11-11-11-11-11-11-|11-11-11-11-11-11-11-11|---
a|-7-7-7-7-7-7-7-7-|-0--0--0--0--0--0--0--0-|-9--9--9--9--9--9--9--9|------
e|-----------------|------------------------|-----------------------|----
   sei...		e' strano			    sai
sen-

g|------------------------|-----------------|-
d|11-11-11-11-11-11-11-11-|-9-9-9-9-9-9-9-9-|---
a|-9--9--9--9--9--9--9--9-|-7-7-7-7-7-7-7-7-|------
e|10-10-10-10-10-10-10-10-|-7-7-7-7-7-7-7-7-|----
  -tirti su di		    me...

qui... sfregami...
e' qui che stai
soffiando su di me...

[chorus]
	RE       MI   FA#-   MI
	se... in vena scorre
	RE     MI FA#-        MI
	lei piano corre da me
	RE  MI    FA#-	MI
	tu, tu mi spegni
	RE MI FA#-
	se... sei tu...
[chorus_end]


che mi vuoi
fuori di me
e' giusto sai
sentirti su di me

tu... seno blu
mi vuoi per te
mi sento cosi' giu'

	se... in vena scorre
	lei piano corre da me
	tu, tu mi spegni
	se... sei tu...

che mi vuoi
fuori di me
e' giusto sai
sentirti su di me

qui... sfregami...
e' qui che stai
soffiando su di me...

	se... in vena scorre
	lei piano corre da me
	tu, tu mi spegni
	se... sei tu...
	...sei tu... sei tu...

---------------------------------------------------------------------
realizzare questa tab e' costata fatica... se la mettete online,
riportate
almeno il mio nome...
-------------------------------------------------------------------------

nuke.
nukedot@libero.it
http://members.xoom.it/nuke
.ho vinto un soggiorno a parigi ma non c'ho il camion per andarlo a prendere...tichiti, tichiti.

     
Добавлено: 17.09.2013
Другие материалы по этой песне:

Страница создана 09.04.2012
http://primanota.ru/verdena/ultranoia-chords.htm
Привет, Гость.
Предлагаем пройти революционный курс по гитаре.
Подарок от PrimaNota.Ru, забирай!