PrimaNota.ru - самый крупный в мире бесплатный архив песенных текстов, аккордов, табулатур и нот


Verdena - Tu E Me - аккорды и текст, видео

Регистрация Запомнить меня
Войти через:  Facebook Google Twitter Vk Yandex Mail.ru

Verdena - Tu E Me - аккорды и текст, видео

Печатать
Просмотров: 84
Tu E Me
Verdena
Verdena - Tu E Me
WOW (2011)

By Kato

Accordatura Standard - E A D G B E

Riff Inizile:

  Am7                  E
e|--------4--------4--|--------0--------0-------|
B|-----2--------2-----|-------------------------|
G|--2--------2--------|-----1--------1----------|
D|--------------------|--2--------2-------------|
A|--------------------|-------------------------|
E|--------------------|-------------------------|


A          E
E' inutile 
A           E
E non potrei 
A            E     G       F
Fermare l'idea che viene e va 
        E
Tu e me 


Cosa dire? Se
Fosse facile 
Sarebbe bellissimo 
Ci sei o ci fai? 
Io non so 


Bridge: D - A - C - G - Bb - E 
E alla fine questo riff:

e|----------------------------------------------|
B|----------------------------------------------|
G|----------------------------------------------|
D|---2~~4-----4~~6-----4~~2---------------------|
A|----------------------------------------------|
E|----------------------------------------------|

~~=Slide


A     E       G       F
In un film distorto ormai 
          E
Tu non sai
C       E
Vai così 
C           E
Verso il blu 


Finale: D - Am
Добавлено: 24.05.2012
Другие материалы по этой песне:
  • Аккорды и текст

Страница создана 24.05.2012
http://primanota.ru/verdena/tu-e-me-chords.htm
Привет, Гость.
Предлагаем пройти революционный курс по гитаре.
Подарок от PrimaNota.Ru, забирай!