PrimaNota.ru - самый крупный в мире бесплатный архив песенных текстов, аккордов, табулатур и нот


Verdena - Sci Desertico - таба, видео

Регистрация Запомнить меня
Войти через:  Facebook Google Twitter Vk Yandex Mail.ru

Verdena - Sci Desertico - таба, видео

Печатать
Просмотров: 36
Artist: Verdena
Song: Sci desertico
Tabbed by: Galva94


*INTRO*
Intro part1
e|----------------------------------|----------------------------------|
B|----------------------------------|----------------------------------|
G|----------------------------------|----------------------------------|
D|----------------------------------|----------------------------------|
A|----------------------------------|----------------------------------|
E|-8---8----------------------8-\\--|-3---3----------------------3-4---|  
   1   +   2   +   3   +   4  +       1   +   2   +   3   +   4  +  

e|----------------------------------|----------------------------------|
B|----------------------------------|----------------------------------|
G|----------------------------------|----------------------------------|
D|----------------------------------|----------------------------------|
A|----------------------------------|----------------------------------|
E|-5---5----------------------10-11-|-12--0---0-------12-----12-12-10-7|  
   1   +   2   +   3   +   4  +       1   +   2   +   3   +   4  +

Intro part2
e|----------------------------------|-----------------5h7---7-7-5------|
B|----------------------------------|-----------------------------7----|
G|----------------------------------|----------------------------------|
D|----------------------------------|----------------------------------|
A|----------------------------------|----------------------------------|
E|-8---8-------------------8////8---|-3---3----------------------------|  
   1   +   2   +   3   +   4  +       1   +   2   +   3   +   4  +  

e|---------5---7---8-7-5---8-7-5----|---------0---2---3-3-3-3-3-2------|
B|----------------------------------|-----------------------------3----|
G|----------------------------------|----------------------------------|
D|----------------------------------|----------------------------------|
A|----------------------------------|----------------------------------|
E|-5---5----------------------------|-0---0----------------------------|  
   1   +   2   +   3   +   4  +       1   +   2   +   3   +   4  +

*VERSE*
Verse part1 3x
e|----------------------------------|----------------------------------|
B|----------------------------------|----------------------------------|
G|----------------------------------|----------------------------------|
D|----------------------------------|----------------------------------|
A|-10--10--10------10--10--10-------|-5---5---5-------5---5---5--------|
E|-8---8---8-------8---8---8--------|-3---3---3-------3---3---3--------|  
   1   +   2   +   3   +   4  +       1   +   2   +   3   +   4  +  
                   Non ci vuole stare         fermo mai         
                   Come ieri adesso          tu ci sei
                   più ti vedo e piu sei fuori di me
                   ma non trovo via di fuga

e|----------------------------------|-----------------0---2---3-2-0----|
B|----------------------------------|----------------------------------|
G|----------------------------------|----------------------------------|
D|----------------------------------|----------------------------------|
A|-7---7---7-------7---7---7--------|-2---2---2------------------------|
E|-5---5---5-------5---5---5--------|-0---0---0------------------------|  
   1   +   2   +   3   +   4  +       1   +   2   +   3   +   4  +
          dici che  non   siamo             comodi
          cosa dire adesso                  chiamami
         nel mare infondo poco anche

Verse part2 1x
e|----------------------------------|----------------------------------|
B|----------------------------------|----------------------------------|
G|----------------------------------|----------------------------------|
D|----------------------------------|----------------------------------|
A|-10--10--10------10--10--10-------|-5---5---5-------5---5---5--------|
E|-8---8---8-------8---8---8--------|-3---3---3-------3---3---3--------|  
   1   +   2   +   3   +   4  +       1   +   2   +   3   +   4  +  
                   ma non trovo via di fuga

e|----------------------------------|----------------------------------|
B|----------------------------------|----------------------------------|
G|----------------------------------|----------------------------------|
D|----------------------------------|----------------------------------|
A|-7---7---7-------7---7---7--------|-2---2---2-------2---2---2--------|
E|-5---5---5-------5---5---5--------|-0---0---0-------0---0---0--------|  
   1   +   2   +   3   +   4  +       1   +   2   +   3   +   4  +
                     sci            deserti-          -co     sci 
Chorus 1x  
e|----------------------------------|----------------------------------|
B|----------------------------------|----------------------------------|
G|----------------------------------|----------------------------------|
D|----------------------------------|----------------------------------|
A|-10--10--------------1010101010\--|-5---5----------------------5-6---|
E|-8---8---------------8-8-8-8-8-\--|-3---3----------------------3-4---|  
   1   +   2   +   3   +   4  +       1   +   2   +   3   +   4  +  
   deserti-                          -co                         sci 

e|----------------------------------|---------0---2---3-2-0---3-2-0----|
B|----------------------------------|----------------------------------|
G|----------------------------------|----------------------------------|
D|----------------------------------|----------------------------------|
A|-7---7---------------7-7-7-7-7-\--|-2---2----------------------------|
E|-5---5---------------5-5-5-5-5-\--|-0---0----------------------------|
   1   +   2   +   3   +   4  +       1   +   2   +   3   +   4  +
   deserti-                          -co


*VERSE*
Verse part1 2x
e|----------------------------------|----------------------------------|
B|----------------------------------|----------------------------------|
G|----------------------------------|----------------------------------|
D|----------------------------------|----------------------------------|
A|-10--10--10------10--10--10-------|-5---5---5-------5---5---5--------|
E|-8---8---8-------8---8---8--------|-3---3---3-------3---3---3--------|  
   1   +   2   +   3   +   4  +       1   +   2   +   3   +   4  +  
                   devi dirlo ai tuoi                 non so se puoi       
                   poi tu mi siedi                      vivo il peso     


e|----------------------------------|-----------------0---2---3-2-0----|
B|----------------------------------|----------------------------------|
G|----------------------------------|----------------------------------|
D|----------------------------------|----------------------------------|
A|-7---7---7-------7---7---7--------|-2---2---2------------------------|
E|-5---5---5-------5---5---5--------|-0---0---0------------------------|  
   1   +   2   +   3   +   4  +       1   +   2   +   3   +   4  +
          devi farlo bimba            credimi                  
          sopra le tue mani come farei                                    


Chorus 1x  
e|----------------------------------|----------------------------------|
B|----------------------------------|----------------------------------|
G|----------------------------------|----------------------------------|
D|----------------------------------|----------------------------------|
A|-10--10--------------1010101010\--|-5---5----------------------5-6---|
E|-8---8---------------8-8-8-8-8-\--|-3---3----------------------3-4---|  
   1   +   2   +   3   +   4  +       1   +   2   +   3   +   4  +  
come!                                                    sto qui sai che 

e|----------------------------------|---------0---2---3-2-0---3-2-0----|
B|----------------------------------|----------------------------------|
G|----------------------------------|----------------------------------|
D|----------------------------------|----------------------------------|
A|-7---7---------------7-7-7-7-7-\--|-2---2----------------------------|
E|-5---5---------------5-5-5-5-5-\--|-0---0----------------------------|
   1   +   2   +   3   +   4  +       1   +   2   +   3   +   4  +
   c'è                  mai lo vorrei                          mai 

*BRIDGE*
Bridge x16
e|----------------------------------|----------------------------------|
B|----------------------------------|----------------------------------|
G|----------------------------------|-8---8---8---8--------------------|
D|-7---7---7---7---2---2---2---2----|-8---8---8---8---8---8---8---8----|
A|-7---7---7---7---2---2---2---2----|-6---6---6---6---8---8---8---8----|
E|-5---5---5---5---0---0---0---0----|-----------------6---6---6---6----|
   1   +   2   +   3   +   4  +       1   +   2   +   3   +   4  +
   lo vor-        -rei

Pre-solo
e|----------------------------------|
B|----------------------------------|
G|----------------------------------|
D|-7---7---7---7---7---7---7---7----|
A|-7---7---7---7---7---7---7---7----|
E|-5---5---5---5---5---5---5---5----|
   1   +   2   +   3   +   4  +     


Solo
e|-------------7---8-------8~-12----|-12\-----7-------8---10-----------|
B|----------------------------------|----------------------------------|
G|----------------------------------|----------------------------------|
D|----------------------------------|----------------------------------|
A|----------------------------------|----------------------------------|
E|----------------------------------|----------------------------------|
   1   +   2   +   3   +   4  +       1   +   2   +   3   +   4  +

e|---------8---8--------------------|-7--------------------------------|
B|-----------------5-------------5--|---------5-------5---7---8-7------|
G|----------------------------7-----|----------------------------------|
D|----------------------------------|----------------------------------|
A|----------------------------------|----------------------------------|
E|----------------------------------|----------------------------------|
   1   +   2   +   3   +   4  +       1   +   2   +   3   +   4  +

e|----------------------------------|----------------------------------|
B|-5-------------5/12---------13-12-|-----------------5/12-------13-12-|
G|----------------------------------|-7--------------------------------|
D|----------------------------------|----------------------------------|
A|----------------------------------|----------------------------------|
E|----------------------------------|----------------------------------|
   1   +   2   +   3   +   4  +       1   +   2   +   3   +   4  +

e|----------------------------------|----------------------------------|
B|-5---------------5/12-------13-12-|----------------(5)---------------|
G|----------------------------------|-7----------------------(7)-------|
D|----------------------------------|----------------------------------|
A|----------------------------------|----------------------------------|
E|----------------------------------|----------------------------------|
   1   +   2   +   3   +   4  +       1   +   2   +   3   +   4  +

*LAST PART*
Verse 3x
e|----------------------------------|----------------------------------|
B|----------------------------------|----------------------------------|
G|----------------------------------|----------------------------------|
D|----------------------------------|----------------------------------|
A|-10--10--10------10--10--10-------|-5---5---5-------5---5---5--------|
E|-8---8---8-------8---8---8--------|-3---3---3-------3---3---3--------|  
   1   +   2   +   3   +   4  +       1   +   2   +   3   +   4  +  
           tu puoi dimostrare         che
              ogni giorno che         vorrai
           tu puoi dimostrare         che                      oh no!

e|----------------------------------|----------------------------------|
B|----------------------------------|----------------------------------|
G|----------------------------------|----------------------------------|
D|----------------------------------|----------------------------------|
A|-7---7---7-------7---7---7--------|-2---2---2-------2---2---2--------|
E|-5---5---5-------5---5---5--------|-0---0---0-------0---0---0--------|  
   1   +   2   +   3   +   4   +      1   +   2   +   3   +   4   +
              solo qui io ti          salirò   tu     tururu tururu
               credimi io ci          proverò         tururu tururu
                                 sci  deserti-co        ci si diverte

e|----------------------------------|----------------------------------|
B|----------------------------------|----------------------------------|
G|----------------------------------|----------------------------------|
D|----------------------------------|----------------------------------|
A|-10--10--------------1010101010\--|-5---5----------------------5-6---|
E|-8---8---------------8-8-8-8-8-\--|-3---3----------------------3-4---|  
   1   +   2   +   3   +   4   +      1   +   2   +   3   +   4   +  
                                                           a sci 

e|----------------------------------|----------------------------------|
B|----------------------------------|----------------------------------|
G|----------------------------------|----------------------------------|
D|----------------------------------|----------------------------------|
A|-7---7---------------7-7-7-7-7-\--|-2---2----------------------------|
E|-5---5---------------5-5-5-5-5-\--|-0---0----------------------------|
   1   +   2   +   3   +   4   +      1   +   2   +   3   +   4   +
  deserti-                           -co           ci si diverte!


Bridge 6x
e|----------------------------------|----------------------------------|
B|----------------------------------|----------------------------------|
G|----------------------------------|-8---8---8---8--------------------|
D|-7---7---7---7---2---2---2---2----|-8---8---8---8---8---8---8---8----|
A|-7---7---7---7---2---2---2---2----|-6---6---6---6---8---8---8---8----|
E|-5---5---5---5---0---0---0---0----|-----------------6---6---6---6----|
   1   +   2   +   3   +   4   +      1   +   2   +   3   +   4   +

*END*
Pre-solo 4x
e|----------------------------------|----------------------------------|
B|----------------------------------|----------------------------------|
G|----------------------------------|----------------------------------|
D|-7---7---7---7---7---7---7---7----|-7---7---7---7---7---7---7---7----|
A|-7---7---7---7---7---7---7---7----|-7---7---7---7---7---7---7---7----|
E|-5---5---5---5---5---5---5---5----|-5---5---5---5---5---5---5---5----|
   1   +   2   +   3   +   4  +       1   +   2   +   3   +   4   +     

End part1 2x
e|---12----------------12-----------|----------------------------------|
B|---------13--15----------15-------|---15--------12--12--13--12-------|
G|----------------------------------|----------------------------------|
D|----------------------------------|----------------------------------|
A|----------------------------------|----------------------------------|
E|----------------------------------|----------------------------------|
   1   +   2   +   3   +   4   +      1   +   2   +   3   +   4   +

e|----------------------------------|----------------------------------|
B|----------------------------------|----------------------------------|
G|----------------------------------|----------------------------------|
D|-7---7---7---7---7---7---7---7----|-7---7---7---7---7---7---7---7----|
A|-7---7---7---7---7---7---7---7----|-7---7---7---7---7---7---7---7----|
E|-5---5---5---5---5---5---5---5----|-5---5---5---5---5---5---5---5----|
   1   +   2   +   3   +   4  +       1   +   2   +   3   +   4   +       

End part2 1x
e|---12-----------------------------|----------------------------------|
B|---------13--15------12-----------|---15--------12--13----10---------|
G|----------------------------------|----------------------------------|
D|----------------------------------|----------------------------------|
A|----------------------------------|----------------------------------|
E|----------------------------------|----------------------------------|
   1   +   2   +   3   +   4   +      1   +   2   +   3   +   4   +

e|-(-17-)---------------------------|----------------------------------|
B|----------------------------------|----------------------------------|
G|----------------------------------|----------------------------------|
D|-7---7---7---7---7---7---7---7----|-7---7---7---7---7---7---7---7----|
A|-7---7---7---7---7---7---7---7----|-7---7---7---7---7---7---7---7----|
E|-5---5---5---5---5---5---5---5----|-5---5---5---5---5---5---5---5----|
   1   +   2   +   3   +   4  +       1   +   2   +   3   +   4   +   
Добавлено: 22.11.2015
Другие материалы по этой песне:
  • Аккорды и текст

Страница создана 22.11.2015
http://primanota.ru/verdena/sci-desertico-chords.htm
Привет, Гость.
Предлагаем пройти революционный курс по гитаре.
Подарок от PrimaNota.Ru, забирай!