PrimaNota.ru - самый крупный в мире бесплатный архив песенных текстов, аккордов, табулатур и нот


Verdena - Nella Schiuma - таба, видео

Регистрация Запомнить меня
Войти через:  Facebook Google Twitter Vk Yandex Mail.ru

Verdena - Nella Schiuma - таба, видео

Печатать
Просмотров: 71
		   E
 clean guitar
|---------------------------------------------------
|---------------------------------------------------
|---------------------------------------------------
|-2--------1-----1-----1-------2----1-----1-----1---
|---2--------2-----2-----2---2--------2-----2-----2-
|-----0--------0-----0-----0------------0-----0-----
*lasciare suonare tutte le note

  E
|-----0------------------------
|-----0------------------------
|-----1------------------------
|-----2----1-----1-----1-------
|---2--------2-----2-----2---2-
|-0------------0-----0-----0---



  E
 w\distortion
|-0----------------------------
|-0----------------------------
|-1----------------------------
|-2--------1-----1-----1---2-2- 3 volte
|-2----------2-----2-----2-2-2-
|-0----/16\----0-----0-----0-0-
                          *p.m.*

  E
                          *da qui in pulito
|-0----------------------------
|-0----------------------------
|-1----------------------------
|-2--------1-----1-----1-------
|-2----------2-----2-----2---2-
|-0----/16\----0-----0----*0---
                          


  E
|---------------------------------------------------
|---------------------------------------------------
|---------------------------------------------------
|-2----1-----1-----1-------2----1-----1-----1------- 
|--------2-----2-----2---2--------2-----2-----2---2-
|----------0-----0-----0------------0-----0-----0---




[verso]

  E
|---------------------------------------------------
|---------------------------------------------------
|---------------------------------------------------
|-2----1-----1-----1-------2----1-----1-----1------- 2 volte
|--------2-----2-----2---2--------2-----2-----2---2-
|----------0-----0-----0------------0-----0-----0---


  E                               *da qui con distorsore
|-------------------------------------
|-------------------------------------
|-------------------------------------
|-2----1-----1-----1---2-2-2-2-2-2----
|--------2-----2-----2-2-2-2-2-2-2----
|----------0-----0-----0-0-0-0-0-0*1//



[rit]


  A5      
|---------------------------------
|---------------------------------
|---------------------------------
|-7-7-7-7-7-7-7-7-7-7-7-7-7-7-7-7-
|-7-7-7-7-7-7-7-7-7-7-7-7-6-6-6-6-
|-5-5-5-5-5-5-5-5-5-5-5-5-5-5-5-5-

|---------------------------------
|---------------------------------
|---------------------------------
|-7-7-7-7-7-7-7-7-7-7-7-7---------
|-7-7-7-7-7-7-7-7-7-7-7-7---------
|-5-5-5-5-5-5-5-5-5-5-5-5-////18\-

  E
|-0----------------------------0----------------------
|-0----------------------------0----------------------
|-1----------------------------1----------------------
|-2--------1-----1-----1---2-2-2--------1-----1-------
|-2----------2-----2-----2-2-2-2----------2-----2-----
|-0------------0-----0-----0-0-0----/16\----0-----0-1/
                          *p.m.*


TUTTO il rit due volte



#verso



#rit



[bridge]

  F#5             G5      B5
|---------------------------------
|---------------------------------
|---------------------------------
|-4-4-4-4-4-4-4-4-4-5-5-5-5-9-9-9- 8 volte
|-4-4-4-4-4-4-4-4-4-5-5-5-5-9-9-9-
|-2-2-2-2-2-2-2-2-2-3-3-3-3-7-7-7-

  (oho oho oho)       verbena!
(dalla quinta volta)


[assolo]
  F#5                        G5          B5
|-------------------------------------------------
|-------------------------------------------------
|-11-11-11-11-11-11-11-11-11-12-12-12-12-16-16-16-
|-------------------------------------------------
|-9--9--9--9--9--9--9--9--9--10-10-10-10-14-14-14-
|-------------------------------------------------

  F#5                        G5          B5
|----------------------------------------------
|----------------------------------------------
|-11-11-11-11-11-11-11-11-11-12-12-12-12-9-9-9-
|----------------------------------------------
|-9--9--9--9--9--9--9--9--9--10-10-10-10-7-7-7-
|----------------------------------------------

TUTTO l'assolo 2 volte



  E

*fuori tempo 
|-------------------------------------------------------
|-------------------------------------------------------
|-------------------------------------------------------
|-----2----1-----1-----1-------2----1-----1-----1h2---1-
|---2--------2-----2-----2---2--------2-----2-----------
|-0------------0-----0-----0------------0-----0---------


 
     
Добавлено: 30.08.2013
Другие материалы по этой песне:
  • Аккорды и текст

Страница создана 30.08.2013
http://primanota.ru/verdena/nella-schiuma-chords.htm
Привет, Гость.
Предлагаем пройти революционный курс по гитаре.
Подарок от PrimaNota.Ru, забирай!