PrimaNota.ru - самый крупный в мире бесплатный архив песенных текстов, аккордов, табулатур и нот


Verdena - Mi Coltivo - таба, видео

Регистрация Запомнить меня
Войти через:  Facebook Google Twitter Vk Yandex Mail.ru

Verdena - Mi Coltivo - таба, видео

Печатать
Просмотров: 37
Artist: Verdena
Song: Mi coltivo
Tabbed by: Galva94


Bass Intro 00:06 - 00:18
e|-----------------|-----------------|-----------------|-----------------|
B|-----------------|-----------------|-----------------|-----------------|
G|-----------------|-----------------|-----------------|-----------------|
D|-----------------|-----------------|-----------------|-----------------|
A|-6-6---3---------|-----------------|-------1---6-----|-3---------------|
D|-----------------|-6-6---3---------|-1-1-------------|-----------------|
  
e|-----------------|-----------------|-----------------|-----------------|
B|-----------------|-----------------|-----------------|-----------------|
G|-----------------|-----------------|-----------------|-----------------|
D|-5*--------------|-----------------|-5*--------------|-----------------|
A|---(guitar natural armonic)--------|-----------------|-----------------|
D|-----------------|-----------------|-----------------|-----------------|

Guitar Intro  00:27 - 00:33
e|---------3-3-3-3-|-3-3-3-3-3-3-3-3-|-3-3-3-3-3-3-3-3-|-3-3-3-3---------|
B|---------4-4-4-4-|-4-4-4-4-4-4-4-4-|-4-4-4-4-4-4-4-4-|-4-4-4-4-3-3-3-3-|
G|---------5-5-5-5-|-5-5-5-5-5-5-5-5-|-5-5-5-5-5-5-5-5-|-5-5-5-5---------|
D|-----------------|-----------------|-----------------|-----------------|
A|-----------------|-----------------|-----------------|-----------------|
D|-----------------|-----------------|-----------------|-----------------|

e|---------3-------|-3-------3-------|-3-------3-------|-3---------------|
B|-3-3-4-----4-----|---4-------4-----|---4-------4-----|---4-----3-3-3-3-|
G|-------5-----5---|-----5-------5---|-----5-------5---|-----5-----------|
D|-----------------|-----------------|-----------------|-----------------|
A|-----------------|-----------------|-----------------|-----------------|
D|-----------------|-----------------|-----------------|-----------------|

Verse  00:34 - 00:46
e|-----------------|-----------------|-----------------|-----------------|
B|-----------------|-----------------|-----------------|-----------------|
G|-----------------|-----------------|-----------------|-----------------|
D|-----------------|-----------------|-----------------|-----------------|
A|-6-6---3---------|-----------------|-------1---6-----|-3---------------|
D|-----------------|-6-6---3---------|-1-1-------------|-----------------|
   Cresco          e sono nei guai     proprio qui
   Fra le briciole e niente più        stai e sei qui


Guitar Intro  00:47 - 00:54
e|---------3-3-3-3-|-3-3-3-3-3-3-3-3-|-3-3-3-3-3-3-3-3-|-3-3-3-3---------|
B|---------4-4-4-4-|-4-4-4-4-4-4-4-4-|-4-4-4-4-4-4-4-4-|-4-4-4-4-3-3-3-3-|
G|---------5-5-5-5-|-5-5-5-5-5-5-5-5-|-5-5-5-5-5-5-5-5-|-5-5-5-5---------|
D|-----------------|-----------------|-----------------|-----------------|
A|-----------------|-----------------|-----------------|-----------------|
D|-----------------|-----------------|-----------------|-----------------|

e|---------3-------|-3-------3-------|-3-------3-------|-3---------------|
B|-3-3-4-----4-----|---4-------4-----|---4-------4-----|---4-----3-3-3-3-|
G|-------5-----5---|-----5-------5---|-----5-------5---|-----5-----------|
D|-----------------|-----------------|-----------------|-----------------|
A|-----------------|-----------------|-----------------|-----------------|
D|-----------------|-----------------|-----------------|-----------------|

Verse  00:55 - 1:14
e|-----------------|-----------------|-----------------|-----------------|
B|-----------------|-----------------|-----------------|-----------------|
G|-----------------|-----------------|-----------------|-----------------|
D|-----------------|-----------------|-----------------|-----------------|
A|-6-6---3---------|-----------------|-------1---6-----|-3---------------|
D|-----------------|-6-6---3---------|-1-1-------------|-----------------|
   Sei wow           vivi per me       fai così
   Fra le briciole   e niente più stai e sei qui

Interlude 1:15 - 1:34
e|-----------------|-----------------|-----------------|-----------------|
B|-----------------|-----------------|-----------------|-----------------|
G|-----------------|-----------------|-----------------|-----------------|
D|-----------------|-----------------|----------(piano riff)-------------|
A|-----------------|-----------------|-1-2-3-----------|-----------------|
D|-1-2-3-3---------|-1-3-4-4---------|-----------------|-----------------|

e|-----------------|-----------------|-----------------|-------------------------|
B|-----------------|-----------------|-----------------|-------------------------|
G|-----------------|-----------------|-----------------|-------------------------|
D|-----6~----------|-5-6-9~----------|-8-9-10~---------|-10-12-13---13-13-12--10-|
A|-----------------|-----------------|-----------------|-------------------------|
D|-----------------|-----------------|-----------------|-------------------------|

e|-----------------|-----------------|-----------------|-------------------------|
B|-----------------|-----------------|-----------------|-------------------------|
G|-----------------|-----------------|-----------------|-------------------------|
D|-----6~----------|-5-6-9~----------|-8-9-10~---------|-10-12-13---13-13-12--10-|
A|-----------------|-----------------|-----------------|-------------------------|
D|-----------------|-----------------|-----------------|-------------------------|

Background  1:35 - 1:48
e|-----------------|-----------------|-----------------|-----------------|
B|-----------------|-----------------|-----------------|-----------------|
G|-----------------|-----------------|-----------------|-----------------|
D|-13-(8x)---------|-12-(8x)---------|-13-(8x)---------|-12-(8x)---------|
A|-----------------|-----------------|-----------------|-----------------|
D|-----------------|-----------------|-----------------|-----------------|
  è la sorte        credi in me o no   si capisco      so bene che 

   1:49 -1:57
e|------------------------|
B|------------------------|
G|------------------------|
D|-15-14-13-14---(8x)-----|
A|------------------------|
D|------------------------|
  Lo farò!!


Background  1:57 - 2:07
e|-----------------|-----------------|-----------------|-----------------|
B|-----------------|-----------------|-----------------|-----------------|
G|-----------------|-----------------|-----------------|-----------------|
D|-13-(8x)---------|-12-(8x)---------|-10-(16x)--------|-----------------|
A|-----------------|-----------------|-----------------|-----------------|
D|-----------------|-----------------|-----------------|-----------------|
  fisso al mondo                        mi rianimerò

Background 2:08 - 2:26
e|-----------------|-----------------|-----------------|-----------------|
B|-----------------|-----------------|-----------------|-----------------|
G|-----------------|-----------------|-----------------|-----------------|
D|-5-7-5-8~--------|-8-8-8-7---------|-5-7-5-8~--------|-8-8-8-7---------|
A|-----------------|---------6-----6-|-----------------|----------6----6-|
D|-----------------|-----------------|-----------------|-----------------|

Intro again 2x   2:27 - 2:41
e|---------3-3-3-3-|-3-3-3-3-3-3-3-3-|-3-3-3-3-3-3-3-3-|-3-3-3-3---------|
B|---------4-4-4-4-|-4-4-4-4-4-4-4-4-|-4-4-4-4-4-4-4-4-|-4-4-4-4-3-3-3-3-|
G|---------5-5-5-5-|-5-5-5-5-5-5-5-5-|-5-5-5-5-5-5-5-5-|-5-5-5-5---------|
D|-----------------|-----------------|-----------------|-----------------|
A|-----------------|-----------------|-----------------|-----------------|
D|-----------------|-----------------|-----------------|-----------------|
  cresco  e il chaos è sempre qui

e|-3-3-3-3-3-3-3-3-|-3-3-3-3-3-3-3-3-|-3-3-3-3-3-3-3-3-|-3-3-3-3---------|
B|-4-4-4-4-4-4-4-4-|-4-4-4-4-4-4-4-4-|-4-4-4-4-4-4-4-4-|-4-4-4-4---5^----|
G|-5-5-5-5-5-5-5-5-|-5-5-5-5-5-5-5-5-|-5-5-5-5-5-5-5-5-|-5-5-5-5---------|
D|-----------------|-----------------|-----------------|-----------------|
A|-----------------|-----------------|-----------------|-(pinch armonic)-|
D|-----------------|-----------------|-----------------|-----------------|
    fra le briciole    e niente    più stai       e sei qui

Clean   2:46 - 3:00
e|-----------------|-------------8-10|-11--------------|-------------8-10-11|
B|---9-----8-------|---6-----8-------|---9-----8-------|---6-----8----------|
G|-----8-----7-----|-----5-----8-----|-----8-----7-----|-----5-----8--------|
D|-----------------|-----------------|-----------------|--------------------|
A|-----------------|-----------------|-----------------|--------------------|
D|-----------------|-----------------|-----------------|--------------------|



Background 2x  3:01-
e|-----------------|-----------------|-----------------|-----------------|
B|-----------------|-----------------|-----------------|-----------------|
G|-----------------|-----------------|-----------------|-----------------|
D|-13-(8x)---------|-12-(8x)---------|-13-(8x)---------|-12-(8x)---------|
A|-----------------|-----------------|-----------------|-----------------|
D|-----------------|-----------------|-----------------|-----------------|
                 è la sorte ci credi è qui che dormirò
  ti capisco       sai bene che     lo farò
  fisso al mondo   io dopotutto mi rianimerò

Background 2x  -3:32
e|-----------------|-----------------|-----------------|-----------------|
B|-----------------|-----------------|-----------------|-----------------|
G|-----------------|-----------------|-----------------|-----------------|
D|-13-(8x)---------|-10-(8x)---------|-10-(8x)---------|-9-(8x)----------|
A|-----------------|-----------------|-----------------|-----------------|
D|-----------------|-----------------|-----------------|-----------------|
  io mi..          coltiverò..

Background 3x  3:33 - 3:44
e|-----------------|-----------------|-----------------|
B|-----------------|-----------------|-----------------|
G|---------12------|---------12------|-----------------|
D|-10101010--101010|-10101010--101010|-9-9-9-9-9-9-9-9-|
A|-----------------|-----------------|-----------------|
D|-----------------|-----------------|-----------------|



Clean   3:45 - end
e|-----------------|-----------------|-----------------|
B|-----------------|-----------------|-----------------|
G|-5-----------3-5-|-0---------------|-----------------|
D|-----------------|-------------1---|---3-5-----------|
A|-----------------|-----------------|---------1-3-----|
D|-----------------|-----------------|-------------3---|

e|-----------------|-----------------|-----------------|
B|-----------------|-----------------|-----------------|
G|-5---------7-8-7-|-0------3--------|-----------------|
D|-----------------|-------------1---|---3-5-----------|
A|-----------------|-----------------|---------1-3-----|
D|-----------------|-----------------|-------------3---|

e|-----------------|-----------------|-----------------|
B|-----------------|-----------------|-----------------|
G|-5-----------3-5-|-0---------------|-----------------|
D|-----------------|-------------1---|---3-5-----------|
A|-----------------|-----------------|---------1-3-----|
D|-----------------|-----------------|-------------3---|

e|-----------------|-----------------|-----------------|
B|-----------------|-----------------|-----------------|
G|-8-7-5-----7-8-7-|-0------3--------|-----------------|
D|-----------------|-----------3-1---|---3-5-----------|
A|-----------------|-----------------|---------1-3-----|
D|-----------------|-----------------|-------------3---|

e|-----------------|
B|-----------------|
G|-----------------|
D|-------------5---|
A|-------1-3-------|
D|-----------------|
Добавлено: 22.11.2015
Другие материалы по этой песне:
  • Аккорды и текст

Страница создана 22.11.2015
http://primanota.ru/verdena/mi-coltivo-chords.htm
Привет, Гость.
Предлагаем пройти революционный курс по гитаре.
Подарок от PrimaNota.Ru, забирай!