PrimaNota.ru - самый крупный в мире бесплатный архив песенных текстов, аккордов, табулатур и нот


Verdena - Il Caos Strisciante - таба, видео

Регистрация Запомнить меня
Войти через:  Facebook Google Twitter Vk Yandex Mail.ru

Verdena - Il Caos Strisciante - таба, видео

Печатать
Просмотров: 89

REQUIEM - IL CAOS STRISCIANTE (TRACK 13)
  tabbed by bizkit (bizkitmauryz@hotmail.it)

Accordatura standard (EADGBE)

 
Intro: (credo usi un delay...o forse
        addirittura c'è registrata sotto un'altra chitarra oltre al piano)

E------------------------------------------0-0--0-0-0-0---------|
B---5/6-5-3/5/3-3/5^/3---0-1--0-1-3-1------x-x--x-x-x-x---------|
G------------------------------------------0-0--0-0-0-0-X2------|
D------------------------------------------5-7--5-7-9-7---------|
A------------------------------------------5-7--5-7-9-7---------|
E------------------------------------------3-5--3-5-7-5---------|


Verso: credo di far parte di un incubo...


E------------------------------------------0-0--0-0-0-0---------|
B---5/6-5-3/5/3-3/5^/3---0-1--0-1-3-1------x-x--x-x-x-x---------|
G------------------------------------------0-0--0-0-0-0---------|
D------------------------------------------5-7--5-7-9-7---------|
A------------------------------------------5-7--5-7-9-7---------|
E------------------------------------------3-5--3-5-7-5---------|


E------------------------------------------|
B---5/6-5-3/5/3-3/5^/3---0-1--0-1-3-1------|
G------------------------------------------|
D------------------------------------------|
A------------------------------------------|
E------------------------------------------|

non cambierà maai...


E-----0-0----0-0-0-0---------|
B-----x-x----x-x-x-x---------|
G-----0-0-9^-0-0-0-0-X2------|
D-----5-7----5-7-9-7---------|x 2
A-----5-7----5-7-9-7---------|
E-----3-5----3-5-7-5---------|

Variazione: se te ne vaai...(con sotto mellotron)

E-----0-----|
B-----x-----|
G-----0-----|
D-----3-----|x molte volte
A-----3-----|
E-----1-----|

parte finale della variazione

E------------12--12--12--12---|
B--------------12--12--12--12-|
G-----------------------------|
D-----2-2-2-------------------|
A-----2-2-2-------------------|
E-----0-0-0-------------------|


Parte strumentale: "3ihihihihihi"

E-------------------10^-------|
B-----------------------------|
G-----------9-10-9------------|
D-----2-2-2-x-x--x------------|x molte volte
A-----2-2-2-7-8--7------------|
E-----0-0-0-------------------|

parte finale della parte strumentale


E-----------------------------------10---10---10---10--8--8--8--8-|
B-----------------------------------------------------------------|
G-----10-10-10-10-9--9--9--9------10---10---10---10---10-10-10-10-|
D-----x--x--x--x--x--x--x--x-x2-----------------------------------|
A-----8--8--8--8--7--7--7--7--------------------------------------|
E-----------------------------------------------------------------|

E-----0-0----0-0-0-0---------|
B-----x-x----x-x-x-x---------|
G-----0-0-9^-0-0-0-0-X2------|
D-----5-7----5-7-9-7---------|x 2
A-----5-7----5-7-9-7---------|
E-----3-5----3-5-7-5---------|


Verso: credo di far parte di un incubo...

E-----------------------------------------------------|
B---5/6-5-3/5/3-3/5^/3---0-1--0-1-3-1--0-1--0-1-3-1---|
G-----------------------------------------------------|
D-----------------------------------------------------|
A-----------------------------------------------------|
E-----------------------------------------------------|

E-------------------------------------------8--7----10---10---10---10--8--8--8--8-|
B---5/6-5-3/5/3-3/5^/3---0-1--0-1-3-1--0-1--8--7----------------------------------|
G-------------------------------------------10-9--10---10---10---10---10-10-10-10-|
D-------------------------------------------10-9----------------------------------|
A-------------------------------------------8--7----------------------------------|
E---------------------------------------------------------------------------------|

Parte strumentale: "mihihihihihi"

E-------------------10^-------|
B-----------------------------|
G-----------9-10-9------------|
D-----2-2-2-x-x--x------------|x molte volte
A-----2-2-2-7-8--7------------|
E-----0-0-0-------------------|

fino alla fine..

a voi la scelta degli effetti
(anche per la parte finale)

buon divertimento..
Добавлено: 08.06.2012
Другие материалы по этой песне:
  • Аккорды и текст

Страница создана 08.06.2012
http://primanota.ru/verdena/il-caos-strisciante-chords.htm
Привет, Гость.
Предлагаем пройти революционный курс по гитаре.
Подарок от PrimaNota.Ru, забирай!