PrimaNota.ru - самый крупный в мире бесплатный архив песенных текстов, аккордов, табулатур и нот


Verdena - Cannibale - таба, видео

Регистрация Запомнить меня
Войти через:  Facebook Google Twitter Vk Yandex Mail.ru

Verdena - Cannibale - таба, видео

Печатать
Просмотров: 28
Artist: Verdena
Song: Cannibale
Tabbed by: Galva94



Intro (1x)
e|-----------------|-----------------|-----------------|-----------------|
B|-----8-----8-----|-----8-----8-----|-----8-----8-----|-----8-----8-----|
G|-----------------|-----------------|-----------------|-----------------|
D|-----------------|-----------------|-----------------|-----------------|   maybe palm-muted
A|---7-----7-------|---7-----7-------|---7-----7-------|---7-----7-------|   on the E string
E|-0-----0---------|-0-----0---------|-0-----0---------|-0-----0---------|
   1       2         3       4         1       2         3       4  

e|-----------------|-----------------|-----------------|-----------------|
B|-----------------|------------10---|-----------9-----|-----9b10r9-7----|
G|-----8-----------|-----8-----------|-----8-----------|-----------------|
D|-----------9-----|-----------------|-----------------|-----------------| 
A|-----------------|-----------------|-----------------|-----------------| 
E|-0-7---0-7-------|-0-7---0-7-------|-0-7---0-7-------|-0-7-------------|
   1       2         3       4         1       2         3       4  

 Intro part 2 + Verse (4x)
   repeat 2x                           repeat 2x
e|-----------------|-----------------|-----------------|-----------------|
B|-----8-----8-----|-----8-----8-----|-----------------|-----------------|
G|-----------------|-----------------|-----8-----------|-----8-----------|
D|-----------------|-----------------|-----------9-----|-----------9-----|  
A|---7-----7-------|---7-----7-------|-----------------|-----------------|   
E|-0-----0---------|-0-----0---------|-0-7---0-7-------|-0-7---0-7-------|
   1       2         3       4         1       2         3       4  
 
Tu simona lo sai, non risorgerai mai, magari, un oceano lo troverai
che frenesia, non sento fatica in me, piove e ritrovo gli dei
credo che illuminerò, ho un fuoco dentro sai, che asciuga le lacrime, e fuggire da qui potrei


Chorus 2x
e|-----------------|-----------------|-----------------|-----------------|-----------------|
B|-----------------|-----------------|-----------------|-----------------|-----------------|
G|-----------------|-----------------|-----------------|-----------------|-----------------|
D|-7-7-7-7-7-7-7-7-|-5-5-5-5-5-5-5-5-|-1010101010101010|-9-9-9-9-9-9-9-9-|-9-9-9-9-9-9-9-9-|
A|-7-7-7-7-7-7-7-7-|-5-5-5-5-5-5-5-5-|-1010101010101010|-9-9-9-9-9-9-9-9-|-9-9-9-9-9-9-9-9-|
E|-5-5-5-5-5-5-5-5-|-3-3-3-3-3-3-3-3-|-8-8-8-8-8-8-8-8-|-7-7-7-7-7-7-7-7-|-7-7-7-7-7-7-7-7-|
Consolami e non      farmi male        consumerai  ciò   che rimaaaane
scoprirai un         mondo lontano   stende il mio di    nuovo al suolo



Solo (not very accurate)
e|-----------------|-----------------|-----------------|-----------------|
B|-8----------10-12|12---------------|-7-----------8-10|10------17-------|
G|-----------------|-----------------|-----------------|-----------------|
D|-----------------|-----------------|-----------------|-----------------|
A|-----------------|-----------------|-----------------|-----------------|
E|-----------------|-----------------|-----------------|-----------------|

e|-----------------|-----------------|-----------------|-----------------|
B|16-17-16-17-19---|12----------10-10|10-12-10-8-7-----|12-------10-10-10|
D|-----------------|-----------------|-----------------|-----------------|
A|-----------------|-----------------|-----------------|-----------------|
E|-----------------|-----------------|-----------------|-----------------|

e|-----------------|-----------------|-----------------|-----------------|
B|10-12-10-8---8-8-|10-------10-10-10|10-12-10-8-----5-|-5-7-8-8-7-5-4-\9|
G|-----------------|-----------------|-----------------|-----------------|
D|-----------------|-----------------|-----------------|-----------------|
A|-----------------|-----------------|-----------------|-----------------|
E|-----------------|-----------------|-----------------|-----------------|

e|-----------------|-----------------|-----------------|-----------------|
B|-4---------------|-r10b12r10b12r10-|-----------------|-----------------|
G|-----------------|--iha-iha-iha-iha------------------|-----------------|
D|-----------------|-----------------|-----------------|-----------------|
A|-----------------|-----------------|-----------------|-----------------|
E|-----------------|-----------------|-----------------|-----------------|

Chorus 1x
e|-----------------|-----------------|-----------------|-----------------|-----------------|
B|-----------------|-----------------|-----------------|-----------------|-----------------|
G|-----------------|-----------------|-----------------|-----------------|-----------------|
D|-7-7-7-7-7-7-7-7-|-5-5-5-5-5-5-5-5-|-1010101010101010|-9-9-9-9-9-9-9-9-|-9-9-9-9-9-9-9-9-|
A|-7-7-7-7-7-7-7-7-|-5-5-5-5-5-5-5-5-|-1010101010101010|-9-9-9-9-9-9-9-9-|-9-9-9-9-9-9-9-9-|
E|-5-5-5-5-5-5-5-5-|-3-3-3-3-3-3-3-3-|-8-8-8-8-8-8-8-8-|-7-7-7-7-7-7-7-7-|-7-7-7-7-7-7-7-7-|
Consolami e non      farmi male        consumerai  ciò   che rimaaaane


Riff 2x
   repeat 2x                           repeat 2x
e|-----------------|-----------------|-----------------|-----------------|
B|-----8-----8-----|-----8-----8-----|-----------------|-----------------|
G|-----------------|-----------------|-----8-----------|-----8-----------|
D|-----------------|-----------------|-----------9-----|-----------9-----|  
A|---7-----7-------|---7-----7-------|-----------------|-----------------|   
E|-0-----0---------|-0-----0---------|-0-7---0-7-------|-0-7---0-7-------|
   1       2         3       4         1       2         3       4  

Non vuole più che, nulla è piu di lei, e ucciderti non potrei, conta su di me
In preda ormai, non sento fatica in me, piove e ritrovo gli dei


Chorus-solo 2x
e|---|-----------------|-----------------|-----------------|-----------------|-----------------|
B|---|-----------------|-----------------|-----------------|-----------------|-----------------|
G|-4-|-5-----------7-9-|-12\-------------|-5-----------7-8-|-11------12-11-9-|-8---------------|
D|---|-----------------|-----------------|-----------------|-----------------|-----------------|
A|---|-----------------|-----------------|-----------------|-----------------|-----------------|
E|---|-----------------|-----------------|-----------------|-----------------|-----------------|
  oh ohh
  Consolami e non      farmi male        consumerai  ciò   che rimaaaane


Outro (bass do the intro again)
e|-----------------|-----------------|-----------------|-----------------|
B|-----------------|-----------------|-----------------|-----------------|
G|-----------------|-----------------|-----------------|-----------------|
D|-9---------------|-----------------|-----------------|-----------------|
A|-----repeat til the end------------|-----------------|-----------------|
E|-----------------|-----------------|-----------------|-----------------|
  oh hooo                              ouhh
Добавлено: 23.02.2016
Вам также может быть интересно:
Другие материалы по этой песне:
  • Аккорды и текст

Страница создана 23.02.2016
http://primanota.ru/verdena/cannibale-chords.htm
Привет, Гость.
Предлагаем пройти революционный курс по гитаре.
Подарок от PrimaNota.Ru, забирай!