PrimaNota.ru - самый крупный в мире бесплатный архив песенных текстов, аккордов, табулатур и нот


Verdena - Buona Risposta - таба, видео

Регистрация Запомнить меня
Войти через:  Facebook Google Twitter Vk Yandex Mail.ru

Verdena - Buona Risposta - таба, видео

Печатать
Просмотров: 119
Уроки эстрадного вокала в Санкт-Петербурге
Artista: Verdena
Titolo: Buona risposta


Accordatura Eb Ab Db Gb C Eb

Strofa:
Eb|-----0------0-----0------0--|
C |-----0------0-----0------0--|
Gb|-4-4-4--4-4-4-4-4-4--4-4-4--|
Db|-0-0-0--------0-0-0--0-0-0--|
Ab|--------2-2-2---------------|
Eb|--------------3-3-3--3-3-3--|

Break:
Eb|---------------------|
C |-----1---------------|
Gb|---0-----------------|
Db|-2-------------------|
Ab|---------------------|
Eb|---------------------|

Inizio strofa 2
Eb|----------------------|
C |-----1--1--0-0-0------|
Gb|---0-0--0--0-0-0------|
Db|-2---2--2--2-2-2------|
Ab|----------------------|
Eb|----------------------|

Chorus:
Eb|---------------------|---------------------|
C |-----1---1---0---0---|-----1---1---0---0---|
Gb|---0-----------------|---0-----------------|
Db|-2-----2---2---2-----|-2-----2---2---2-----|
Ab|---------------------|---------------------|
Eb|---------------------|---------------------|

Eb|-0---0-0-0-0---0---0-0-0-0---|
C |-0---0-0-0-0---0---0-0-0-0---|
Gb|-4---4-4-4-4---4---4-4-4-4---|
Db|-0---0-0-0-0---0---0-0-0-0---|
Ab|-----------------------------|
Eb|-3---3-3-3-3---3---3-3-3-3---|

Eb|--------------------------------------|
C |--------------------------------------|
Gb|-11-11-11-11-9-9-9-9-7-7-7-7-7-7-7-7--|
Db|--------------------------------------|
Ab|-9--9--9--9--7-7-7-7-5-5-5-5-5-5-5-5--|
Eb|--------------------------------------|

Assolo:
|---------------------------------------------------------------------------------|
|---------------------------------------------------------------------------------|
|---------------^-----18h19-19-19-18-18-------------^-----------------------------|
|---12-14-14~16-16-16-------------------17-17-17-16-18-17-16-14-12-11h12-11-------|
|-12------------------------------------------------------------------------12~14-|
|---------------------------------------------------------------------------------|

|-----------------------------------------------------------------------------------------------|
|---------------------------------------------------------------------------^-------------------|
|-----------------12-11---19-19-19-19-18-18-18--------19-18-18-18--------19-19-19-18-19-18------|
|------12-14-12-11-----11---------------------17-17-16-----------17-17-16-----------------17-16-|
|-12-14-----------------------------------------------------------------------------------------|
|-----------------------------------------------------------------------------------------------|

|----------------------------------------------------------------|
|----------------------------------------------------------------|
|----------------------------------------------------------------|
|-16-17-19-19-17-16-14-14-16-17-16-14-12-11-11-12~14-12-11-7-7~9-|
|----------------------------------------------------------------|
|----------------------------------------------------------------|

Chiusura:
|------------------------------------------------------------|
|------------------------------------------------------------|
|-9-7-12-11--9-7-12-11--9-6-12-11--9-7-11-12--9-7-6h7(6)-0---|
|----------------------------------------------------------4-|
|------------------------------------------------------------|
|------------------------------------------------------------|
Добавлено: 04.09.2013
Другие материалы по этой песне:
  • Аккорды и текст

Страница создана 04.09.2013
http://primanota.ru/verdena/buona-risposta-chords.htm
Привет, Гость.
Предлагаем пройти революционный курс по гитаре.
Подарок от PrimaNota.Ru, забирай!