PrimaNota.ru - самый крупный в мире бесплатный архив песенных текстов, аккордов, табулатур и нот


Verde 70 - Ni Para Ti Ni Para Nadie - таба, видео

Регистрация Запомнить меня
Войти через:  Facebook Google Twitter Vk Yandex Mail.ru

Verde 70 - Ni Para Ti Ni Para Nadie - таба, видео

Печатать
Просмотров: 80
Aca hago unas modificaciones a los acordes, para que se luzcan,
el punteo esta bien sacado.


Ya que nadie pone nada, les dejo con lo poco que saqué... El punteo está bien, no estoy 
seguro de los acordes
Bueno, aquí les va...

[Riff1]
  F#m                                    F#m
e|-------------------------------------|-------------------------------|
B|-------------------------------------|-----------------------9~------|
G|-------------------------------------|-------------------9-6---------|
D|---7-----------9-7-6~/--9b11r9p7-----|--7-----------9-6--------------|
A|-9-------------------------------9-7-|9------------------------------|
E|-----7-8-9-10------------------------|----7-8-9-10-------------------|

   F#m                    D     E         F#m              D   E
e|-------------------------------------|-------------------------------|
B|-------------------------------------|-------------------------------|
G|-------------------------------------|-------------------9-6-9~------|
D|---7-----------9---6~/--9b11r9p7-----|--7-----------9-6--------------|
A|-9-------------------------------9-7-|9------------------------------|
E|-----7-8-9-10------------------------|----7-8-9-10-------------------|

  F#m                     D      E       F#m             D     E
e|-------------------------------------|-------------------------------|
B|-------------------------------------|---------------------9-10-9-10/|
G|-------------------------------------|-----------------9-6-----------|
D|---7-----------9-7-6~/--9b11r9p7-----|--7----------9-6---------------|
A|-9-------------------------------9-7-|9------------------------------|
E|-----7-8-9-10------------------------|----7-8-9-10-------------------|

F#m                 D-E
Hoy no estoy ni para ti ni para nadie
       F#m
y para que hablar de amor,
        D-E
si puedo estar mucho mejor
         F#m
hoy encerré con cuatro llaves
    D-E                      F#m
penas, llantos y pesares del ayer
 D-E
(ayer me juré no volver a ver)

F#m                 D     E
Hoy guardé melancolías y quebrantos
      F#m                     D
en el último cajón hoy se confunden
  E                   F#m
entre tantos sueños rotos malgastados
       D         E             F#m
de esos falsos, y un pasado que se fue
 D     E
(en el último cajón los enterré)

(Arpegiando)

D                       E
  Solo estoy parado en la aventura
F#m         D          E
  en el camino abandoné mis dudas
D
un poco de aire fresco
          E           F#m              F#m
a cualquiera le viene bien, a mi también
             D-E
e|------------------------|
B|------------------------|
G|------------------------|
D|---------------9-7-6~/--|
A|-9-7--------------------|
E|-----7-8-9-10-----------|
                      F#m
y para la sicología absurda de este mundo
no me levanté.

[Riff]
 F#m                     D       E       F#m              D        E
e|-------------------------------------|-------------------------------|
B|-------------------------------------|-------------------------------|
G|-------------------------------------|------------------6-9-6-6-9-6-6|
D|---------------9-7-6~/--9b11r9p7-----|--7----------9--6--------------|
A|-9-7-----------------------------9-7-|9------------------------------|
E|-----7-8-9-10------------------------|----7-8-9-10-------------------|

 F#m                     D       E       F#m              D       E
e|-------------------------------------|-------------------------------|
B|-------------------------------------|---------------------9-10-9-10/|
G|-------------------------------------|-----------------9-6-----------|
D|---7-----------9-7-6~/--9b11r9p7-----|--7----------9-6---------------|
A|-9-------------------------------9-7-|9------------------------------|
E|-----7-8-9-10------------------------|----7-8-9-10-------------------|

Hoy no estoy para apoyar ideologías
para colgarme banderas, defender filosofías
Hoy no estoy para promesas
ni fugaces utopías que se irán
(SI A LA final lo que viene se va)

Bm                       E
Hoy no estoy para aferrarme a los horarios
Bm                         E
ser tan libre como ayer, reírme de los calendarios
Bm
voy a buscarme otro destino
E                              F#m
contruirme otro camino para andar
D-E
(vivir la vida así en cualquier lugar)

(Arpregiando)

Solo estoy parado en la aventura
en el camino abandoné mis dudas...

[Solo]

Hoy solo estoy parado en la aventura
en el camino abandoné mis dudas
un poco de aire fresco
a cualquiera le viene bien, a mi también
hoy para la sicología absurda de este mundo
no me levanté, no me levanté
(ni para ti ni para nadie) no, no me levanté
no, no me levanté (ni para ti ni para nadie)
no me levanté...

[Outro]

(ni para ti ni para nadie
 ni para ti ni para nadie...)

************************************************
:::Leyenda:::
~   vibrato
/   slide (slide out)
p   pull off
B   bend
r   release

************************************************

para mas información, preguntas o sugerencias, escribeme a ricky_estrella.95@hotmail.com :)
Добавлено: 30.06.2013
Другие материалы по этой песне:
  • Аккорды и текст

Страница создана 30.06.2013
http://primanota.ru/verde-70/ni-para-ti-ni-para-nadie-chords.htm
Привет, Гость.
Предлагаем пройти революционный курс по гитаре.
Подарок от PrimaNota.Ru, забирай!