PrimaNota.ru - самый крупный в мире бесплатный архив песенных текстов, аккордов, табулатур и нот


Verbal Abuse - Boredom - таба, видео

Регистрация Запомнить меня
Войти через:  Facebook Google Twitter Vk Yandex Mail.ru

Verbal Abuse - Boredom - таба, видео

Печатать
Просмотров: 101
Уроки эстрадного вокала в Санкт-Петербурге
-------------------------------------------------------------------------------
                             Verbal Abuse - Boredom
-------------------------------------------------------------------------------
Tabbed by:Sauveur
E-mail:

Intro

e|---------------------------------------------------------------------------|
B|---------------------------------------------------------------------------|
G|---------------------------------------------------------------------------|
D|---------X-7-6-5------------------------------------------------------------|
A|-7-7-7-7-X-5-4-3----let ring------------------------------------------------|
E|-5-5-5-5-------------------------------------------------------------------|

Verse

e|---------------------------------------------------------------------------|
B|---------------------------------------------------------------------------|
G|---------------------------------------------------------------------------|
D|---------------------------------------------------------------------------|
A|-777777777777--5555555555555-----------------------------------------------|
E|-555555555555--3333333333333-----------------------------------------------|

Chorus

e|---------------------------------------------------------------------------|
B|---------------------------------------------------------------------------|
G|---------------------------------------------------------------------------|
D|--------------------5-4-5--------------------------------------------------|
A|33333333-5555555----3-2-3--------------------------------------------------|
E|11111111-3333335-----------------------------------------------------------|

There you go ! Don't forget to play it fast ! 

************************************
Добавлено: 27.04.2016
Другие материалы по этой песне:
  • Аккорды и текст

Страница создана 27.04.2016
http://primanota.ru/verbal-abuse/boredom-chords.htm
Привет, Гость.
Предлагаем пройти революционный курс по гитаре.
Подарок от PrimaNota.Ru, забирай!