PrimaNota.ru - самый крупный в мире бесплатный архив песенных текстов, аккордов, табулатур и нот


Verax - I Just Wanna Burn - таба, видео

Регистрация Запомнить меня
Войти через:  Facebook Google Twitter Vk Yandex Mail.ru

Verax - I Just Wanna Burn - таба, видео

Печатать
Просмотров: 69
E STANDARD TUNING (EADGBE)


Intro
e----------------------|
B----------------------|
G-10---6-------8-8-8-8-|
D-10---6---6---8-8-8-8-|
A--8---4---6---6-6-6-6-|
E----------4-----------|

e-------------------------------------------------------------------------|
B-------------------------------------------------------------------------|
G-10-10-10-10-10-10-10-10-6-6-6-6-6-6-6-6-----------------8-8-8-8-8-8-8-8-|
D-10-10-10-10-10-10-10-10-6-6-6-6-6-6-6-6-6-6-6-6-6-6-6-6-8-8-8-8-8-8-8-8-|  X3
A--8--8--8--8--8--8--8--8-4-4-4-4-4-4-4-4-6-6-6-6-6-6-6-6-6-6-6-6-6-6-6-6-|
E-----------------------------------------4-4-4-4-4-4-4-4-----------------|

e----------|
B----------|
G--6---5---|
D--6---5---|
A--4---3---|
E----------|


Verse
e-----------------------------------------------------------------------------------|
B-----------------------------------------------------------------------------------|
G-10-10---10-10-10---10-10-10---10-10-10---10-10-10---10-10-10---10-6-6---6-6-8-6-8-|
D-10-10---10-10-10---10-10-10---10-10-10---10-10-10---10-10-10---10-6-6---6-6-8-6-8-|  X4
A--8--8----8--8--8----8--8--8----8--8--8----8--8--8----8--8--8----8-4-4---4-4-6-4-6-|
E-----------------------------------------------------------------------------------|

e----------------------------------------------|
B----------------------------------------------|
G-10---6---10---6---10---6---8-8-8-8-8-8-8-8-8-|
D-10---6---10---6---10---6---8-8-8-8-8-8-8-8-8-|
A--8---4----8---4----8---4---6-6-6-6-6-6-6-6-6-|
E----------------------------------------------|



Chorus
e-------------------------------------------------------------------------|
B-------------------------------------------------------------------------|
G-10-10-10-10-10-10-10-10-6-6-6-6-6-6-6-6-----------------8-8-8-8-8-8-8-8-|
D-10-10-10-10-10-10-10-10-6-6-6-6-6-6-6-6-6-6-6-6-6-6-6-6-8-8-8-8-8-8-8-8-|  X3
A--8--8--8--8--8--8--8--8-4-4-4-4-4-4-4-4-6-6-6-6-6-6-6-6-6-6-6-6-6-6-6-6-|
E-----------------------------------------4-4-4-4-4-4-4-4-----------------|

e----------|
B----------|
G--6---5---|
D--6---5---|
A--4---3---|
E----------|

e------------------------------|
B------------------------------|
G-10--10-10-10-10-10-12-13-15--|
D-10--10-10-10-10-10-12-13-15--|
A--8---8--8--8--8--8-10-11-13--|
E------------------------------|



Verse
e-----------------------------------------------------------------------------------|
B-----------------------------------------------------------------------------------|
G-10-10---10-10-10---10-10-10---10-10-10---10-10-10---10-10-10---10-6-6---6-6-8-6-8-|
D-10-10---10-10-10---10-10-10---10-10-10---10-10-10---10-10-10---10-6-6---6-6-8-6-8-|  X4
A--8--8----8--8--8----8--8--8----8--8--8----8--8--8----8--8--8----8-4-4---4-4-6-4-6-|
E-----------------------------------------------------------------------------------|

e----------------------------------------------|
B----------------------------------------------|
G-10---6---10---6---10---6---8-8-8-8-8-8-8-8-8-|
D-10---6---10---6---10---6---8-8-8-8-8-8-8-8-8-|
A--8---4----8---4----8---4---6-6-6-6-6-6-6-6-6-|
E----------------------------------------------|



Chorus
e-------------------------------------------------------------------------|
B-------------------------------------------------------------------------|
G-10-10-10-10-10-10-10-10-6-6-6-6-6-6-6-6-----------------8-8-8-8-8-8-8-8-|
D-10-10-10-10-10-10-10-10-6-6-6-6-6-6-6-6-6-6-6-6-6-6-6-6-8-8-8-8-8-8-8-8-|  X3
A--8--8--8--8--8--8--8--8-4-4-4-4-4-4-4-4-6-6-6-6-6-6-6-6-6-6-6-6-6-6-6-6-|
E-----------------------------------------4-4-4-4-4-4-4-4-----------------|

e----------|
B----------|
G--6---5---|
D--6---5---|
A--4---3---|
E----------|



Bridge
e-----------------------------------------------------|
B-----------------------------------------------------|
G-6-6-6-6-6-6-6-6-6-6-6-6-6-6-6-6---------8---6---5---|
D-6-6-6-6-6-6-6-6-6-6-6-6-6-6-6-6-6-6-6-6-8---6---5---|
A-4-4-4-4-4-4-4-4-4-4-4-4-4-4-4-4-6-6-6-6-6---4---3---|
E---------------------------------4-4-4-4-------------|

e-----------------------------------------------------|
B-----------------------------------------------------|
G-6-6-6-6-6-6-6-6-6-6-6-6-6-6-6-6---------8---6---8---|
D-6-6-6-6-6-6-6-6-6-6-6-6-6-6-6-6-6-6-6-6-8---6---8---|
A-4-4-4-4-4-4-4-4-4-4-4-4-4-4-4-4-6-6-6-6-6---4---6---|
E---------------------------------4-4-4-4-------------|

e-----------------------------------------------------|
B-----------------------------------------------------|
G-6-6-6-6-6-6-6-6-6-6-6-6-6-6-6-6---------8---6---5---|
D-6-6-6-6-6-6-6-6-6-6-6-6-6-6-6-6-6-6-6-6-8---6---5---|
A-4-4-4-4-4-4-4-4-4-4-4-4-4-4-4-4-6-6-6-6-6---4---3---|
E---------------------------------4-4-4-4-------------|

e--------------------------------------------------------------------------------------------------|
B--------------------------------------------------------------------------------------------------|
G--------------------------------------------------------------------------------------------------|
D-4-4-4-4-4-4-4-4-4-4-4-4-4-4-4-4-6-6-6-6-6-6-6-6-6-6-6-6-6-6-6-6-3----------------3---------------|
A-4-4-4-4-4-4-4-4-4-4-4-4-4-4-4-4-6-6-6-6-6-6-6-6-6-6-6-6-6-6-6-6-3----------------3---------------|
E-2-2-2-2-2-2-2-2-2-2-2-2-2-2-2-2-4-4-4-4-4-4-4-4-4-4-4-4-4-4-4-4-1----------------1---------------|



Solo
 ..................................P.M....................................
e-------------------------------------------------------------------------|
B-------------------------------------------------------------------------|
G-10-10-10-10-10-10-10-10-6-6-6-6-6-6-6-6-----------------8-8-8-8-8-8-8-8-|
D-10-10-10-10-10-10-10-10-6-6-6-6-6-6-6-6-6-6-6-6-6-6-6-6-8-8-8-8-8-8-8-8-|  X2
A--8--8--8--8--8--8--8--8-4-4-4-4-4-4-4-4-6-6-6-6-6-6-6-6-6-6-6-6-6-6-6-6-|
E-----------------------------------------4-4-4-4-4-4-4-4-----------------|

e-------------------------------------------------------------------------|
B-------------------------------------------------------------------------|
G-10-10-10-10-10-10-10-10-6-6-6-6-6-6-6-6-----------------8-8-8-8-8-8-8-8-|
D-10-10-10-10-10-10-10-10-6-6-6-6-6-6-6-6-6-6-6-6-6-6-6-6-8-8-8-8-8-8-8-8-|
A--8--8--8--8--8--8--8--8-4-4-4-4-4-4-4-4-6-6-6-6-6-6-6-6-6-6-6-6-6-6-6-6-|
E-----------------------------------------4-4-4-4-4-4-4-4-----------------|

e----------|
B----------|
G--6---5---|
D--6---5---|
A--4---3---|
E----------|



Chorus
e-------------------------------------------------------------------------------------------------|
B-------------------------------------------------------------------------------------------------|
G-13-13-13-13-13-13-13-13-16-16-16-16-16-16-16-16-16-16-16-16-16-16-16-16-15-15-15-15-15-15-15-15-|
D-13-13-13-13-13-13-13-13-16-16-16-16-16-16-16-16-16-16-16-16-16-16-16-16-15-15-15-15-15-15-15-15-|  X3
A-11-11-11-11-11-11-11-11-14-14-14-14-14-14-14-14-14-14-14-14-14-14-14-14-13-13-13-13-13-13-13-13-|
E-------------------------------------------------------------------------------------------------|

e------------|
B------------|
G--13---13---|
D--13---13---|
A--11---11---|
E------------|

Chorus
e-------------------------------------------------------------------------|
B-------------------------------------------------------------------------|
G-10-10-10-10-10-10-10-10-6-6-6-6-6-6-6-6-----------------8-8-8-8-8-8-8-8-|
D-10-10-10-10-10-10-10-10-6-6-6-6-6-6-6-6-6-6-6-6-6-6-6-6-8-8-8-8-8-8-8-8-|  X3
A--8--8--8--8--8--8--8--8-4-4-4-4-4-4-4-4-6-6-6-6-6-6-6-6-6-6-6-6-6-6-6-6-|
E-----------------------------------------4-4-4-4-4-4-4-4-----------------|

e----------------|
B----------------|
G--6---5---3-----|
D--6---5---3---3-|
A--4---3---5---3-|
E--------------1-|
Добавлено: 18.06.2016
Другие материалы по этой песне:
  • Аккорды и текст

Страница создана 18.06.2016
http://primanota.ru/verax/i-just-wanna-burn-chords.htm
Привет, Гость.
Предлагаем пройти революционный курс по гитаре.
Подарок от PrimaNota.Ru, забирай!