PrimaNota.ru - самый крупный в мире бесплатный архив песенных текстов, аккордов, табулатур и нот


Verax - The Countdown - таба, видео

Регистрация Запомнить меня
Войти через:  Facebook Google Twitter Vk Yandex Mail.ru

Verax - The Countdown - таба, видео

Печатать
Просмотров: 128
Уроки эстрадного вокала в Санкт-Петербурге
Standard Tuning (EADGBE)

Intro+Verse
E-------------------------------------------------------------------|
B--1-1-0-3-1-0-1-1--1-1-0-3-1-0-1-1-1-1-0-3-1-0-1-1-1-1-0-3-1-0-1-1-|
G-2-2---------2-2------------------2-2---------2-2------------------|
D------------------0-0---------0-0-----------------2-2---------2-2--|
A-------------------------------------------------------------------|
E-------------------------------------------------------------------|

Outro
E---0--------------------------------------------------------------|
B--1-0-3-1-0-1-1-1-1-0-3-1-0-1-1-1-1-0-3-1-0-1-1-1-1-0-3-1-0-1-0---|
G-2---------2-2-2-2---------2-2-2-2---------2-2-2-2---------2-2----|
D------------------------------------------------------------------|
A------------------------------------------------------------------|
E------------------------------------------------------------------|
Добавлено: 19.10.2015
Вам также может быть интересно:
Другие материалы по этой песне:
  • Аккорды и текст

Страница создана 19.10.2015
http://primanota.ru/verax/countdown-chords.htm
Привет, Гость.
Предлагаем пройти революционный курс по гитаре.
Подарок от PrimaNota.Ru, забирай!