PrimaNota.ru - самый крупный в мире бесплатный архив песенных текстов, аккордов, табулатур и нот


Vera Loca - Borracho Y Loco - бас-таба, видео

Регистрация Запомнить меня
Войти через:  Facebook Google Twitter Vk Yandex Mail.ru

Vera Loca - Borracho Y Loco - бас-таба, видео

Печатать
Просмотров: 103
-------------------------------------------------------------------------------
                             BORRACHO Y LOCO - Vera Loca
-------------------------------------------------------------------------------
Tabbed by: Ihago Oliveira
E-mail: ihagooliveira@hotmail.com

Tuning: Standard

Intro (Começa em 00:19)
   G|----------------------------------------------------------------------------|
   D|------------5-------------------5------------------0--------------------0---|
   A|7---5-7-5-----5-----7---5-7-5-----5-----2---0-2-0----0------2---0-2-0-----0-|
   E|--7-------7-----------7-------7-----------2-------2-----------2-------2-----|

   G|----------------------------------------------------------------|
   D|--------------------------------------------------5-------------|
   A|------------3-------------------3-----7---5-7-5-----5--2---0-2--|
   E|5-0-3-5-3-0---0-----5-0-3-5-3-0---0-----7-------7--------2------|

   
Verse

   G|----------------------------------------------------------------------------|
   D|------------5-------------------5------------------0--------------------0---|
   A|7---5-7-5-----5-----7---5-7-5-----5-----2---0-2-0----0------2---0-2-0-----0-|
   E|--7-------7-----------7-------7-----------2-------2-----------2-------2-----|

   G|----------------------------------------------------------------|
   D|--------------------------------------------------5-------------|  2x
   A|------------3-------------------3-----7---5-7-5-----5--2---0-2--|
   E|5-0-3-5-3-0---0-----5-0-3-5-3-0---0-----7-------7--------2------|

   Querem me incomodar
   Tentam me ver gritar
   Sou como uma pedra
   Palavras não me tocam

   E dentro há um vulcão
   Pronto a estourar
   Queria estar tranquilo

   Não aguento mais
   Minha situação
   Ando desolado
   Sem você do meu lado
   Parece não ter fim
   Essa desilusão
   Quero tomar um vinho



Pre-Chorus


(Parte do OOOOOOOOH)

   G|-----------------------------------------------------------|
   D|-----------------------------------------------------------|
   A|7-77-7-77-2-22-2-22-----------7-77/14-14-14-14-14-14-14-14-|
   E|--------------------5-55-5-55------------------------------|


Chorus

   G|----------------------------------------------------------------------------|
   D|------------5-------------------5------------------0--------------------0---|
   A|7---5-7-5-----5-----7---5-7-5-----5-----2---0-2-0----0------2---0-2-0-----0-|
   E|--7-------7-----------7-------7-----------2-------2-----------2-------2-----|

   G|----------------------------------------------------------------|
   D|--------------------------------------------------5-------------|  2x
   A|------------3-------------------3-----7---5-7-5-----5--2---0-2--|
   E|5-0-3-5-3-0---0-----5-0-3-5-3-0---0-----7-------7--------2------|

E agora estou aqui
Borracho y loco
E meu coração idiota
Ainda chora

E eu te esperarei
Borracho y loco
Baby até hoje eu não sei
Por que você foi embora

E eu te esperarei
Te esperarei pra sempre
Baby até hoje eu não sei
Por que você foi embora


Solo

   G|----------------------------------------------------------------------------|
   D|------------5-------------------5------------------0--------------------0---|
   A|7---5-7-5-----5-----7---5-7-5-----5-----2---0-2-0----0------2---0-2-0-----0-|
   E|--7-------7-----------7-------7-----------2-------2-----------2-------2-----|

   G|----------------------------------------------------------------|
   D|--------------------------------------------------5-------------| 
   A|------------3-------------------3-----7---5-7-5-----5--2---0-2--|
   E|5-0-3-5-3-0---0-----5-0-3-5-3-0---0-----7-------7--------2------|







Depois repete tudo de novo...


| /  slide up
| \  slide down
| h  hammer-on
| p  pull-off
| ~  vibrato
| +  harmonic
| x  Mute note
===============================================================================
Добавлено: 10.08.2015
Другие материалы по этой песне:
  • Аккорды и текст

Страница создана 10.08.2015
http://primanota.ru/vera-loca/borracho-y-loco-chords.htm
Привет, Гость.
Предлагаем пройти революционный курс по гитаре.
Подарок от PrimaNota.Ru, забирай!