PrimaNota.ru - самый крупный в мире бесплатный архив песенных текстов, аккордов, табулатур и нот


Venus - Perfect Lover - текст песни, таба, видео

Регистрация Запомнить меня
Войти через:  Facebook Google Twitter Vk Yandex Mail.ru

Venus - Perfect Lover - текст песни, таба, видео

Печатать
Просмотров: 199
Уроки эстрадного вокала в Санкт-Петербурге
Venus - Perfect Lover
Tuning makes all in this song. 
Open D is easier, so: DADF#AD or DADGBE the high strings are not used. 


Intro (0:00) and Prechoruses
D----------------------------|
A----------------------------|
F#---------------------------|
D------8\5-5--0-3-0-3-0-3----|
A------8\5-5--0-3-0-3-0-3----|
D------8\5-5--0-3-0-3-0-3----|


Verses (0:18)
D-------------------------------------------------|
A-------------------------------------------------|
F#------------------------------------------------|
D-----5----7----8----7----5----7----8----10-------|
A----(5)--(7)--(8)--(7)--(5)--(7)--(8)--(10)------|
D----(5)--(7)--(8)--(7)--(5)--(7)--(8)--(10)------|


Préchorus (0:42)
Verse (0:54)
Préchorus (1:18)


Chorus (1:30)
D------------------------|---------------------------------|
A------------------------|---------------------------------|
F#-----------------------|---------------------------------|
D----12--8--12--8--------|---8--7--5--5-----8--8--8--7-----|
A----12--8--12--8--------|---8--7--5--5-----8--8--8--7-----|
D----12--8--12--8--------|---8--7--5--5-----8--8--8--7-----|


Violin's pause (2:18)
Verse (2:30)
Prechorus(2:54)


Bridge (3:06)
D----------------------------|
A----------------------------|
F#---------------------------|
D----5--5--5--5--5--5--5--5--|
A----5--5--5--5--5--5--5--5--|
D----5--5--5--5--5--5--5--5--|

Chorus (3:19)
Chorus + Intro riff (4:06)


There are overdubs, but the essential is here.
My favorite song. I suppose.
beranger80@hotmail.com
Добавлено: 22.07.2013
Другие материалы по этой песне:
  • Аккорды и текст

Страница создана 08.06.2012
http://primanota.ru/venus/perfect-lover-chords.htm
Привет, Гость.
Предлагаем пройти революционный курс по гитаре.
Подарок от PrimaNota.Ru, забирай!