PrimaNota.ru - самый крупный в мире бесплатный архив песенных текстов, аккордов, табулатур и нот


Venus - Million Miles Away - текст песни, таба, видео

Регистрация Запомнить меня
Войти через:  Facebook Google Twitter Vk Yandex Mail.ru

Venus - Million Miles Away - текст песни, таба, видео

Печатать
Просмотров: 243
Уроки эстрадного вокала в Санкт-Петербурге



Date: Sat, 22 Oct 2005 10:32:36 +0200 (CEST)
From: Christophe 
Subject: v/venus/million_miles_away.tab

MILLION MILES AWAY
By Venus - Vertigone

Transcription by
Christophe Girard (ch_girard@yahoo.fr)


Verses:
-------

E||------------------------------|--------------------------|
B||---------12------------12-----|--------8-----------8-----|
G||------0------0------0------0--|-----0-----0-----0-----0--|
D||--12------------12------------|--9-----------9-----------|
A||------------------------------|--------------------------|
E||------------------------------|--------------------------|

E||------------------------------|------------------------------|
B||---------10------------10-----|---------13------------13-----|
G||------0------0------0------0--|------0------0------0------0--|
D||--10------------10------------|--13------------13------------|
A||------------------------------|------------------------------|
E||------------------------------|------------------------------|


Chorus:
-------

First part (played 3 times):

E||--------------3-----------|--------------3-----------|
B||--------4--------4-----4--|--------4--------4-----4--|
G||-----5-----5--------5-----|-----5-----5--------5-----|
D||--------------------------|--------------------------|
A||--3-----------------------|--0-----------------------|
E||--------------------------|--------------------------|

E||--------------3-----------|--------------3-----------|
B||--------3--------3-----3--|--------3--------3-----3--|
G||-----5-----5--------5-----|-----5-----5--------5-----|
D||--------------------------|--------------------------|
A||--5-----------------------|--5-----------------------|
E||--------------------------|--------------------------|

Second part (played once):

E||--------------3-----------|--------------3-----------|
B||--------4--------4-----4--|--------5--------5-----5--|
G||-----5-----5--------5-----|-----3-----3--------3-----|
D||--------------------------|--------------------------|
A||--3-----------------------|--4-----------------------|
E||--------------------------|--------------------------|

E||--------------3-----------|--------------3-----------|
B||--------3--------3-----3--|--------3--------3-----3--|
G||-----5-----5--------5-----|-----5-----5--------5-----|
D||--------------------------|--------------------------|
A||--5-----------------------|--5-----------------------|
E||--------------------------|--------------------------|


Instrumental part (before 2nd verse)
------------------------------------

First part (played twice)

E||--------------------------|--------------------------|
B||--------3-----------3-----|--------3-----------3-----|
G||-----0-----0-----0-----0--|-----0-----0-----0-----0--|
D||--------------------------|--------------------------|
A||--2-----------2-----------|--2-----------2-----------|
E||--------------------------|--------------------------|

E||--------------------------|--------------------------|
B||--------4-----------4-----|--------6-----------4-----|
G||-----0-----0-----0-----0--|-----0-----0-----0-----0--|
D||--------------------------|--------------------------|
A||--3-----------3-----------|--5-----------3-----------|
E||--------------------------|--------------------------|

Second part (played once)

E||--------------------------|--------------------------|
B||--------3-----------3-----|--------3-----------3-----|
G||-----0-----0-----0-----0--|-----0-----0-----0-----0--|
D||--------------------------|--------------------------|
A||--1-----------1-----------|--1-----------1-----------|
E||--------------------------|--------------------------|

E||--------------------------|--------------------------|
B||--------3-----------3-----|--------3-----------3-----|
G||-----0-----0-----0-----0--|-----0-----0-----0-----0--|
D||--------------------------|--------------------------|
A||--0-----------0-----------|--0-----------0-----------|
E||--------------------------|--------------------------|


The chorus transcription sounds like what is played but is not exact.
Any comments or corrections are welcome  
ch_girard@yahoo.fr




	

	
		
___________________________________________________________________________ 


Добавлено: 20.11.2013
Другие материалы по этой песне:
  • Аккорды и текст

Страница создана 23.05.2012
http://primanota.ru/venus/million-miles-away-chords.htm
Привет, Гость.
Предлагаем пройти революционный курс по гитаре.
Подарок от PrimaNota.Ru, забирай!