PrimaNota.ru - самый крупный в мире бесплатный архив песенных текстов, аккордов, табулатур и нот


Ventures - Theme from a summer place - таба, бас-таба, видео

Регистрация Запомнить меня
Войти через:  Facebook Google Twitter Vk Yandex Mail.ru

Ventures - Theme from a summer place - таба, бас-таба, видео

Печатать
Просмотров: 255




-----------------------------------------------
-----------------------------------------------
-------2--1--------2--1--4/6--1----------------
-2--4--------2--4----------------4--1--4--4/6--
-----------------------------------------------
-----------------------------------------------


----------------------------------------
----------------------------------------
----------------------------------------
--1-----1--4--2--1--4--2--1--4----------
-----4----------------------------------
----------------------------------------


---------------------------------
---------------------------------
--9--8-----8/6--4--------4--2-1--
--------9----------0--1----------
---------------------------------
----------------------------------


---------------------------------
---------------------------------
--2--4--6--7/9--7-----------------
---------------------------------
---------------------------------
---------------------------------



this is just half of the song,any questions or comments send to   msaulmoa@yaho.com

also email me for oldies tab request

Добавлено: 16.09.2013
Другие материалы по этой песне:

Страница создана 16.09.2013
http://primanota.ru/ventures/theme-from-a-summer-place-chords.htm
Привет, Гость.
Предлагаем пройти революционный курс по гитаре.
Подарок от PrimaNota.Ru, забирай!