PrimaNota.ru - самый крупный в мире бесплатный архив песенных текстов, аккордов, табулатур и нот


Ventures - Slaughter On 10th Avenue - таба, видео

Регистрация Запомнить меня
Войти через:  Facebook Google Twitter Vk Yandex Mail.ru

Ventures - Slaughter On 10th Avenue - таба, видео

Печатать
Просмотров: 137
SLAUGHTER ON 10TH AVENUE


The Ventures


INTRO

   N.C. (D)
e|---------------------------------|---------------------------------|
B|---------------------------------|---------------------------------|
G|---------------------------------|---------------------------------|
D|-------------7-------------------|-------------7-------------------|
A|-5-------------------------------|-5-------------------------------|
E|-------------------------5-------|-------------------------5-------|



e|---------------------------------|---------------------------------|
B|---------------------------------|---------------------------------|
G|---------------------------------|---------------------------------|
D|-------------7-------------------|-------------7-----------7-------|
A|-5-------------------------------|-5-------------------------------|
E|-------------------------5-------|---------------------------------|



VERSE


   D
e|---------------------------------|---------------------------------|
B|-7-------------------------------|-----------------7---5-------7---|
G|---------------------------------|-------------------------7-------|
D|---------------------------------|---------------------------------|
A|---------------------------------|---------------------------------|
E|---------------------------------|---------------------------------|


   F#m
e|---------------------------------|---------------------------------|
B|-5---------------5---------------|---------------------------------|
G|-------------6-------------------|---------------------------------|
D|---------------------------------|---------------------------------|
A|---------------------------------|---------------------------------|
E|---------------------------------|---------------------------------|


   G                                 A               Bm
e|-----------------3---------------|-5-------------------------------|
B|-3---------------3---------------|------5----8-----7--\-5----------|
G|-4-------------------------------|---------------------------7-----|
D|---------------------------------|---------------------------------|
A|---------------------------------|---------------------------------|
E|---------------------------------|---------------------------------|


   A               Bm                N.C.
e|-5-------------------------------|---------------------------------|
B|-5-------------------------------|---------------------------------|
G|-6-------------------------------|---------------------------------|
D|---------------------------------|-------------------------7-------|
A|---------------------------------|---------------------------------|
E|---------------------------------|---------------------------------|



VERSE


   D
e|---------------------------------|---------------------------------|
B|-7-------------------------------|-----------------7---5-------7---|
G|---------------------------------|-------------------------7-------|
D|---------------------------------|---------------------------------|
A|---------------------------------|---------------------------------|
E|---------------------------------|---------------------------------|


   F#m
e|---------------------------------|---------------------------------|
B|-5---------------5---------------|---------------------------------|
G|-------------6-------------------|---------------------------------|
D|---------------------------------|---------------------------------|
A|---------------------------------|---------------------------------|
E|---------------------------------|---------------------------------|


   G                                 A               Bm
e|-----------------3---------------|-5-------------------------------|
B|-3---------------3---------------|------5----8-----7--\-5----------|
G|-4-------------------------------|---------------------------7-----|
D|---------------------------------|---------------------------------|
A|---------------------------------|---------------------------------|
E|---------------------------------|---------------------------------|


   A               Bm                A               Bm      C#m
e|-5-------------------------------|---------------------------------|
B|-5-------------------------------|---------------------------------|
G|-6-------------------------------|-----------------4-------6-------|
D|---------------------------------|---------------------------------|
A|---------------------------------|---------------------------------|
E|---------------------------------|---------------------------------|


   Bm                                Bb
e|---------------------------------|---------------------------------|
B|-7-----------7-----------7-------|-----6---------------------------|
G|-----7-----------7-----------7---|---------5-------7---5-----------|
D|---------9-----------9-----------|-8-----------8-----------8-------|
A|---------------------------------|---------------------------------|
E|---------------------------------|---------------------------------|


   D                                 Bb          A
e|---------------------------------|---------------------------------|
B|-7-------------------------------|---------------------------------|
G|-7-------------------------------|---------------------------------|
D|-7-------------------------------|-3-----------2-----------7-------|
A|---------------------------------|-1-----------0-------------------|
E|---------------------------------|---------------------------------|



VERSE


   D
e|---------------------------------|---------------------------------|
B|-7-------------------------------|-------------5---7---5-------7---|
G|---------------------------------|---------7---------------7-------|
D|---------------------------------|-----7---------------------------|
A|---------------------------------|---------------------------------|
E|---------------------------------|---------------------------------|


   F#m
e|---------------------------------|---------------------------------|
B|-5---------------5---------------|---------5b7---------5b7r5-------|
G|-------------6-------------------|---------------------------------|
D|---------------------------------|---------------------------------|
A|---------------------------------|---------------------------------|
E|---------------------------------|---------------------------------|


   G                                 A               Bm
e|-----------------3---------------|-5-------------------------------|
B|-3---------------3---------------|------5----8-----7--\-5----------|
G|-4-------------------------------|---------------------------7-----|
D|---------------------------------|---------------------------------|
A|---------------------------------|---------------------------------|
E|---------------------------------|---------------------------------|


   A               Bm                A               Bm      C#m
e|-5-------------------------------|---------------------------------|
B|-5-------------------------------|---------------------------------|
G|-6-------------------------------|-----------------4-------6-------|
D|---------------------------------|---------------------------------|
A|---------------------------------|---------------------------------|
E|---------------------------------|---------------------------------|


   Bm                                Bb
e|---------------------------------|---------------------------------|
B|-7-----------7-----------7-------|-----6---------------------------|
G|-----7-----------7-----------7---|---------5-------7---5-----------|
D|---------9-----------9-----------|-8-----------8-----------8-------|
A|---------------------------------|---------------------------------|
E|---------------------------------|---------------------------------|


   D                                                 X X X X x   X
e|---------------------------------|---------------------------------|
B|-7-------------------------------|---------------------------------|
G|-7-------------------------------|---------------------------------|
D|-7-------------------------------|---------------------------------|
A|---------------------------------|---------------------------------|
E|---------------------------------|---------------------------------|



INTERLUDE


   D
e|---------------------------------|---------------------------------|
B|-7-----------7-----------7-------|-----7-------7---7---7---7---7---|
G|-7-----------7-----------7-------|-----7-------7---7---7---7---7---|
D|-7-----------7-----------7-------|-----7-------7---7---7---7---7---|
A|-9-----------9-----------9-------|-----9-------9---9---9---9---9---|
E|-10----------10----------10------|-----10------10--10--10--10--10--|


   D#
e|---------------------------------|---------------------------------|
B|-8-----------8-----------8-------|-----8-------8---8---8---8-------|
G|-8-----------8-----------8-------|-----8-------8---8---8---8-------|
D|-8-----------8-----------8-------|-----8-------8---8---8---8-------|
A|-10----------10----------10------|-----10------10--10--10--10------|
E|-11----------11----------11------|-----11------11--11--11--11------|
  organ
e|---------------------------------|---------------------------------|
B|---------------------------------|-----------------------------8---|
G|---------------------------------|---------------------------------|
D|---------------------------------|---------------------------------|
A|---------------------------------|---------------------------------|
E|---------------------------------|---------------------------------|


BRIDGE

   D#                                Cm
e|---------------------------------|-------------8-------------------|
B|-7---7---8---9---------------8---|-7---7---8-------------------8---|
G|---------------------------------|---------------------------------|
D|---------------------------------|---------------------------------|
A|---------------------------------|---------------------------------|
E|---------------------------------|---------------------------------|


   D#                                Cm
e|---------------------------------|-10--8--10--8------------6-------|
B|-7---7---8---8---9---8---9---8---|---------------------------------|
G|---------------------------------|---------------------------------|
D|---------------------------------|---------------------------------|
A|---------------------------------|---------------------------------|
E|---------------------------------|---------------------------------|


   D#                                G#
e|-8-------11--------------11------|---------------------------------|
B|-------------11------------------|-9---------------11--------------|
G|---------------------------------|---------------------------------|
D|---------------------------------|---------------------------------|
A|---------------------------------|---------------------------------|
E|---------------------------------|---------------------------------|


   G
e|---------------------------------|---------------------------------|
B|-8-------------------------------|---------------------------------|
G|---------------------------------|---------------------------------|
D|---------------------------------|---------------------------------|
A|---------------------------------|---------------------------------|
E|---------------------------------|---------------------------------|
  lead
e|---------------------------------|---------------------------------|
B|---------------------------------|---------------------------------|
G|-5b7-----7---5b7-----7---5b7-----|---------------------------------|
D|---------------------------------|-8b10----8b10----8b10------------|
A|---------------------------------|---------------------------------|
E|---------------------------------|-------------------------3-------|



VERSE


   C
e|---------------------------------|---------------------------------|
B|---------------------------------|---------------------------------|
G|---------------------------------|---------------------------------|
D|---------------------------------|---------------------------------|
A|-2-------------------------------|---------3---5---7---5-------7---|
E|---------------------------------|-----3-------------------8-------|


   Em
e|---------------------------------|---------------------------------|
B|---------------------------------|---------------------------------|
G|---------------------------------|---------------------------------|
D|---------------------------------|---------------------------------|
A|---------7---7-----------5-/-7---|-------------5b7-----5b7-----3---|
E|-0---------------5-/-7-----------|-0-------------------------------|


   F                                 G               Am
e|---------------------------------|---------------------------------|
B|---------------------------------|---------------------------------|
G|---------------------5-------5---|---------------------------------|
D|-----------------7-------7-------|-5-------------------------------|
A|---------------------------------|-------------5---8---7---5-------|
E|---------------------------------|-----------------------------8---|


   G               Am                G
e|---------------------------------|---------------------------------|
B|---------------------------------|---------------------------------|
G|---------------------------------|---------------------------------|
D|---------5---------------5-------|---------5---5---7-------9-------|
A|---------------------------------|-5-------------------------------|
E|-7-----------7---8-----------8---|---------------------------------|


   Am                                G#
e|---------------------------------|---------------------------------|
B|---------------------------------|---------------------------------|
G|-5-----------5-----------5-------|-----------------5---------------|
D|-----7-----------7---------------|------5----7----------7----5-----|
A|---------7-----------7-----------|---------------------------------|
E|---------------------------------|---------------------------------|


   C                                 N.C.
e|---------------------------------|---------------------------------|
B|-5-------------------------------|---------------------------------|
G|---------------------------------|---------------------------------|
D|---------------------------------|---------------------------------|
A|---------------------------------|-----------------3----4----6-----|
E|---------------------------------|------4----6---------------------|



VERSE


   C#
e|---------------------------------|---------------------------------|
B|---------------------------------|---------------------------------|
G|---------------------------------|---------------------------------|
D|-3---------------3---------------|---------------------------------|
A|---------------------------------|---------4---6---8-\-6-------8---|
E|-------------4-------------------|-----4-------------------9-------|


   Fm
e|---------------------------------|---------------------------------|
B|---------------------------------|---------------------------------|
G|---------------------------------|---------------------------------|
D|---------------------------------|---------------------------------|
A|---------8---8-----------6-/-8---|-------------6b8-----6b8-----4---|
E|-1---------------6-/-8-----------|-1-------1-----------------------|


   F#                                G#              Bbm
e|---------------------------------|---------------------------------|
B|---------------------------------|---------------------------------|
G|---------------------6-------6---|---------------------------------|
D|-----------------8-------8-------|-6-------------------------------|
A|---------4-----------------------|-------------6---9---8---6-------|
E|---------------------------------|-----------------------------9---|


   G#              Bbm               G#
e|---------------------------------|---------------------------------|
B|---------------------------------|---------------------------------|
G|---------------------------------|---------------------------------|
D|---------6---------------6-------|---------6---6---8-------10------|
A|---------------------------------|-6-------------------------------|
E|-8-----------8---9-----------9---|---------------------------------|


   Bbm                               A
e|---------------------------------|---------------------------------|
B|---------------------------------|---------------------------------|
G|-6-----------6-----------6-------|-----------------6---------------|
D|-----8-----------8---------------|------7----9----------9----7-----|
A|---------8-----------8-----------|---------------------------------|
E|---------------------------------|---------------------------------|



OUTRO


   C#                                A
e|---------------------------------|---------------------------------|
B|---------------------------------|---------------------------------|
G|-6-----------6-----------6-------|-----------------6---------------|
D|-----6-----------6---------------|------7----9----------9----7-----|
A|---------8-----------8-----------|---------------------------------|
E|---------------------------------|---------------------------------|


   C#                                A
e|---------------------------------|---------------------------------|
B|---------------------------------|---------------------------------|
G|-6-----------6-----------6-------|-----------------6---------------|
D|-----6-----------6---------------|------7----9----------9----7-----|
A|---------8-----------8-----------|---------------------------------|
E|---------------------------------|---------------------------------|


   C#                                A
e|---------------------------------|---------------------------------|
B|---------------------------------|---------------------------------|
G|-6-----------6-----------6-------|-----------------6---------------|
D|-----6-----------6---------------|------7----9----------9----7-----|
A|---------8-----------8-----------|---------------------------------|
E|---------------------------------|---------------------------------|


   C#                                A
e|---------------------------------|---------------------------------|
B|---------------------------------|---------------------------------|
G|-6-----------6-----------6-------|-----------------6---------------|
D|-----6-----------6---------------|------7----9----------9----7-----|
A|---------8-----------8-----------|---------------------------------|
E|---------------------------------|---------------------------------|


   C#                                A
e|---------------------------------|---------------------------------|
B|---------------------------------|---------------------------------|
G|-6-----------6-----------6-------|-----------------6---------------|
D|-----6-----------6---------------|------7----9----------9----7-----|
A|---------8-----------8-----------|---------------------------------|
E|---------------------------------|---------------------------------|
                                                             FADE OUT
Добавлено: 23.06.2013
Другие материалы по этой песне:
  • Аккорды и текст

Страница создана 23.06.2013
http://primanota.ru/ventures/slaughter-on-10th-avenue-chords.htm
Привет, Гость.
Предлагаем пройти революционный курс по гитаре.
Подарок от PrimaNota.Ru, забирай!