PrimaNota.ru - самый крупный в мире бесплатный архив песенных текстов, аккордов, табулатур и нот


Ventures - Raunchy Guitar - бас-таба, видео

Регистрация Запомнить меня
Войти через:  Facebook Google Twitter Vk Yandex Mail.ru

Ventures - Raunchy Guitar - бас-таба, видео

Печатать
Просмотров: 178
Ventures_Raunchy Guitar(Guitar Twist)

Basstab by Jan Bjorklund, Finland
 jani_bjorklund@yahoo.se>
You are welcome to request for basstabs!
Fingering and positions as suggested by TablEdit,
please use common sense!

TablEdited by Jan Bjorklund
Tuning : E A D G 	Time Signature: 4/4

  |       |       |       |          |       |       |
      |         
|----------------------------------|-------------------------3--------|
|----------------------------------|---------3-------6----------------|
|-------------------------3--------|----------------------------------|
|----------------------------------|-6--------------------------------|

  |       |       |       |          |       |       |
      |         
|-------------------------3--------|-------------------------3--------|
|---------3-------6----------------|---------3-------6----------------|
|----------------------------------|----------------------------------|
|-6--------------------------------|-6--------------------------------|

  |       |       |       |          |       |       |
      |         
|-------------------------3--------|-------------------------3--------|
|---------3-------6----------------|---------3-------6----------------|
|----------------------------------|----------------------------------|
|-6--------------------------------|-6--------------------------------|

  |       |       |       |          |       |       |
      |         
|----------------------------------|----------------------------------|
|---------3---6---6---6---5---3----|-----------------3---3---5--------|
|----------------------------------|---------5---5--------------------|
|-6--------------------------------|-6---6----------------------------|

  |       |       |       |          |       |       |
      |         
|----------------------------------|-----------------3---3---5---3----|
|-----------------3---3-------3----|---------5---5--------------------|
|---------5---5-----------5--------|-6---6----------------------------|
|-6---6----------------------------|----------------------------------|

  |       |       |       |          |       |       |
      |         
|---------5---5---3---3------------|----------------------------------|
|-------------------------5---3----|-----------------3---3---5---3----|
|-6---6----------------------------|---------5---5--------------------|
|----------------------------------|-6---6----------------------------|

  |       |       |       |          |       |       |
      |         
|----------------------------------|---------2---2---5---5---2---5----|
|-----------------3---3---5--------|-3---3----------------------------|
|---------5---5---------------5----|----------------------------------|
|-6---6----------------------------|----------------------------------|

  |       |       |       |          |       |       |
      |         
|----------------------------------|----------------------------------|
|---------5---5---3---3------------|-----------------3---3---5---5----|
|-6---6-------------------5---3----|---------5---5--------------------|
|----------------------------------|-6---6----------------------------|

  |       |       |       |          |       |       |
      |         
|----------------------------------|-------------------------3--------|
|-3---3---3---3---3----------------|---------3-------6----------------|
|---------------------6---5---3----|----------------------------------|
|----------------------------------|-6--------------------------------|

  |       |       |       |          |       |       |
      |         
|----------------------------------|----------------------------------|
|---------3---6---6---6---5---3----|-----------------3---3---5--------|
|----------------------------------|---------5---5--------------------|
|-6--------------------------------|-6---6----------------------------|

  |       |       |       |          |       |       |
      |         
|----------------------------------|-----------------3---3---5---3----|
|-----------------3---3-------3----|---------5---5--------------------|
|---------5---5-----------5--------|-6---6----------------------------|
|-6---6----------------------------|----------------------------------|

  |       |       |       |          |       |       |
      |         
|---------5---5---3---3------------|----------------------------------|
|-------------------------5---3----|-----------------3---3---5---3----|
|-6---6----------------------------|---------5---5--------------------|
|----------------------------------|-6---6----------------------------|

  |       |       |       |          |       |       |
      |         
|----------------------------------|---------2---2---5---5---2---5----|
|-----------------3---3---5--------|-3---3----------------------------|
|---------5---5---------------5----|----------------------------------|
|-6---6----------------------------|----------------------------------|

  |       |       |       |          |       |       |
      |         
|----------------------------------|----------------------------------|
|---------5---5---3---3------------|-----------------3---3---5---5----|
|-6---6-------------------5---3----|---------5---5--------------------|
|----------------------------------|-6---6----------------------------|

  |       |       |       |          |       |       |
      |         
|----------------------------------|----------------------------------|
|-3---3---3---3---3---3---3---3----|----------------------------------|
|----------------------------------|----------------------------------|
|----------------------------------|-6-------6-------6----------------|

  |       |       |       |          |       |       |
      |         
|----------------------------------|----------------------------------|
|----------------------------------|----------------------------------|
|---------6------------------------|----------------------------------|
|-----------------6----------------|-6-------6-----------6------------|

  |       |       |       |          |       |       |
      |         
|----------------------------------|----------------------------------|
|----------------------------------|----------------------------------|
|---------6------------------------|----------------------------------|
|-----------------6----------------|-6-------6-----------6------------|

  |       |       |       |          |       |       |
      |         
|----------------------------------|----------------------------------|
|----------------------------------|----------------------------------|
|---------6------------------------|----------------------------------|
|-----------------6----------------|-6-------6-----------6------------|

  |       |       |       |          |       |       |
      |         
|----------------------------------|----------------------------------|
|----------------------------------|----------------------------------|
|---------6------------------------|----------------------------------|
|-----------------6----------------|-6-----------6-------6---6--------|

  |       |       |       |          |       |       |
      |         
|----------------------------------|----------------------------------|
|-----------------3---3---5---3----|-----------------2---2---4---2----|
|---------5---5--------------------|---------4---4--------------------|
|-6---6----------------------------|-5---5----------------------------|

  |       |       |       |          |       |       |
      |         
|----------------------------------|----------------------------------|
|-----------------2---2---4---2----|-------------------------3--------|
|---------4---4--------------------|---------3---3---6---6-------6----|
|-5---5----------------------------|-4---4----------------------------|

  |       |       |       |          |       |       |
      |         
|----------------------------------|----------------------------------|
|-------------------------3--------|----------------------------------|
|---------3---3---6---6-------6----|----------------------------------|
|-4---4----------------------------|-3-------3-------3----------------|

  |       |       |       |          |       |       |
      |         
|----------------------------------|----------------------------------|
|----------------------------------|-----------------3---3---3---5----|
|----------------------------------|---------5---6--------------------|
|-2-------2-------1-------3---5----|-6---6----------------------------|

  |       |       |       |          |       |       |
      |         
|-3---3---7---7---10--10--12--12---|-15--15--15--15--12--10--7---5----|
|----------------------------------|----------------------------------|
|----------------------------------|----------------------------------|
|----------------------------------|----------------------------------|

  |       |       |       |          |       |       |
      |         
|-3---3----------------------------|-----------------3---3---3---3----|
|---------6---6---3---3------------|---------5---5--------------------|
|-------------------------5---5----|-6---6----------------------------|
|----------------------------------|----------------------------------|

  |       |       |       |          |       |       |
      |         
|-8---8---6---6---3---3-------3----|-2---3---3---3---6---7---10--10---|
|-------------------------5--------|----------------------------------|
|----------------------------------|----------------------------------|
|----------------------------------|----------------------------------|

  |       |       |       |          |       |       |
      |         
|-3---3---3---3--------------------|---------2---2---5---5---7---5----|
|-----------------5---3-------3----|-3---3----------------------------|
|-------------------------5--------|----------------------------------|
|----------------------------------|----------------------------------|

  |       |       |       |          |       |       |
      |         
|----------------------------------|----------------------------------|
|-3---3---3---3---3----------------|----------------------------------|
|---------------------6---5---3----|----------------------------------|
|----------------------------------|-6---6---6---6---6---6---6---6----|

  |       |       |       |          |       |       |
      |         
|----------------------------------|----------------------------------|
|----------------------------------|-----------------3---3---5---3----|
|----------------------------------|---------5---5--------------------|
|-1-------1---1-----------1--------|-6---6----------------------------|

  |       |       |       |          |       |       |
      |         
|----------------------------------|----------------------------------|
|-----------------3---3---5---3----|-----------------4---4---6---4----|
|---------5---5--------------------|-2---2---6---6--------------------|
|-6---6----------------------------|----------------------------------|

  |       |       |       |          |       |       |
      |         
|----------------------------------|-------------------------2--------|
|-----------------4---4---6---4----|---------2---2---5---5-------5----|
|-2---2---6---6--------------------|-3---3----------------------------|
|----------------------------------|----------------------------------|

  |       |       |       |          |       |       |
      |         
|----------------------------------|----------------------------------|
|---------2---2---5---5---5--------|----------------------------------|
|-3---3----------------------------|-3---3---3---3---3---3---3---3----|
|----------------------------------|----------------------------------|

  |       |       |       |          |       |       |
      |         
|----------------------------------|----------------------------------|
|----------------------------------|----------------------------------|
|-3---3---3---3---3---3---3---3----|----------------------------------|
|----------------------------------|-1--------------------------------|

  |       |       |       |          |       |       |
      |         
|----------------------------------|----------------------------------|
|----------------------------------|----------------------------------|
|----------------------------------|----------------------------------|
|----------------------------------|----------------------------------|

  |       |       |       |          |       |       |
      |         
|----------------------------------|----------------------------------|
|----------------------------------|-------------------------3--------|
|----------------------------------|---------3-------6----------------|
|-------------------------3--------|-1--------------------------------|

  |       |       |       |          |       |       |
      |         
|----------------------------------|----------------------------------|
|-------------------------3--------|-------------------------3--------|
|---------3-------6----------------|---------3-------6----------------|
|-1--------------------------------|-1--------------------------------|

  |       |       |       |          |       |       |
      |         
|----------------------------------|----------------------------------|
|-------------------------3--------|-------------------------3--------|
|---------3-------6----------------|---------3-------6----------------|
|-1--------------------------------|-1--------------------------------|

  |       |       |       |          |       |       |
      |         
|----------------------------------|----------------------------------|
|-------------------------3--------|----------------------------------|
|---------3-------6----------------|-----------------3---3---5---3----|
|-1--------------------------------|-1---1---5---5--------------------|

  |       |       |       |          |       |       |
      |         
|----------------------------------|----------------------------------|
|----------------------------------|-----------------3---3---5---3----|
|-----------------3---3-------3----|-------------5--------------------|
|-1---1---5---5-----------5--------|-6---6---6------------------------|

  |       |       |       |          |       |       |
      |         
|----------------------------------|----------------------------------|
|-----------------3---3---5---3----|----------------------------------|
|-------------5--------------------|-----------------3---3---5---3----|
|-6---6---6------------------------|-1---1---5---5--------------------|

  |       |       |       |          |       |       |
      |         
|----------------------------------|-------------------------2--------|
|----------------------------------|---------2---2---5---5-------5----|
|-----------------3---3---5---3----|-3---3----------------------------|
|-1---1---5---5--------------------|----------------------------------|

  |       |       |       |          |       |       |
      |         
|----------------------------------|----------------------------------|
|----------------------------------|----------------------------------|
|-3---3---3---3--------------------|-----------------3---3---5---3----|
|---------------------6---5---3----|-1---1---5---5--------------------|

  |       |       |       |          |       |       |
      |         
|----------------------------------|----------------------------------|
|----------------------------------|----------------------------------|
|-3---3---3---3---3----------------|-----------------3---3---5---3----|
|---------------------6---5---3----|-1---1---5---5--------------------|

  |       |       |       |          |       |       |
      |         
|----------------------------------|----------------------------------|
|----------------------------------|----------------------------------|
|-3---3---3---3---3----------------|-----------------3---3---5---3----|
|---------------------6---5---3----|-1---1---5---5--------------------|

  |       |       |       |          |       |       |
      |         
|----------------------------------|----------------------------------|
|----------------------------------|----------------------------------|
|-3---3---3---3---3----------------|-----------------3---3---5---3----|
|---------------------6---5---3----|-1---1---5---5--------------------|

  |       |       |       |          |       |       |
      |         
|----------------------------------|----------------------------------|
|----------------------------------|----------------------------------|
|-3---3---3---3---3----------------|-----------------3---3---5---3----|
|---------------------6---5---3----|-1---1---5---5--------------------|

  |       |       |       |                
|----------------------------------|
|----------------------------------|
|-3---3---3------------------------|
|----------------------------------|


Created with TablEdit http://www.tabledit.com/


     
Добавлено: 06.06.2013
Другие материалы по этой песне:
  • Аккорды и текст

Страница создана 06.06.2013
http://primanota.ru/ventures/raunchy-guitar-chords.htm
Привет, Гость.
Предлагаем пройти революционный курс по гитаре.
Подарок от PrimaNota.Ru, забирай!