PrimaNota.ru - самый крупный в мире бесплатный архив песенных текстов, аккордов, табулатур и нот


Ventures - Rap City - таба, бас-таба, видео

Регистрация Запомнить меня
Войти через:  Facebook Google Twitter Vk Yandex Mail.ru

Ventures - Rap City - таба, бас-таба, видео

Печатать
Просмотров: 266
RAP CITY


The Ventures


  INTRO




e|---------------------------------|---------------------------------|
B|---------------------------------|---------------------------------|
G|---------------------------------|---------------------------------|
D|---------------------------------|---------------------------------|
A|---------------------------------|---------------------------------|
E|-3---3---3---3---2---2---2---2---|-1---1---1---1---0---0---0---0---|
  P.M...............................................................



                                                             x
e|---------------------------------|---------------------------------|
B|---------------------------------|---------------------------------|
G|---------------------------------|---------------------------------|
D|---------------------------------|---------------------------------|
A|---------------------------------|---------------------------------|
E|-3---3---3---3---2---2---2---2---|-1---1---1---1---0---0---0---0---|
   .................................................................


   X
e|---------------------------------|---------------------------------|
B|---------------------------------|---------------------------------|
G|---------------------------------|---------------------------------|
D|---------------------------------|---------------------------------|
A|---------------------------------|---------------------------------|
E|-3---------------2---------------|-1---------------0---------------|

e|---------------------------------|---------------------------------|
B|---------------------------------|---------------------------------|
G|---------------------------------|---------------------------------|
D|---------------------------------|---------------------------------|
A|---------------------------------|---------------------------------|
E|-3---3---3---3---2---2---2---2---|-1---1---1---1---0---0---0---0---|
   .................................................................




e|---------------------------------|---------------------------------|
B|---------------------------------|---------------------------------|
G|---------------------------------|---------------------------------|
D|---------------------------------|---------------------------------|
A|---------------------------------|---------------------------------|
E|-3---------------2---------------|-1---------------0---------------|

e|---------------------------------|---------------------------------|
B|---------------------------------|---------------------------------|
G|---------------------------------|---------------------------------|
D|---------------------------------|---------------------------------|
A|---------------------------------|---------------------------------|
E|-3---3---3---3---2---2---2---2---|-1---1---1---1---0---0---0---0---|
   .................................................................




  VERSE



e|---------------------------------|-3-------------------------------|
B|-5-----------------------5-------|-------------------------5-------|
G|-4-------------------------------|---------------------------------|
D|-5-------------------------------|---------------------------------|
A|---------------------------------|---------------------------------|
E|---------------------------------|---------------------------------|





e|---------------------------------|---------------------------------|
B|-4-----------------------5---7---|-5-------------------------------|
G|---------------------------------|---------------------------------|
D|---------------------------------|---------------------------------|
A|---------------------------------|---------------------------------|
E|---------------------------------|---------------------------------|





e|---------------------------------|---------------------------------|
B|-----------------------------5---|---------------------------------|
G|-5-----------------------7-------|-4-------------------------------|
D|---------------------------------|---------------------------------|
A|---------------------------------|---------------------------------|
E|---------------------------------|---------------------------------|





e|---------------------------------|---------------------------------|
B|---------------------------------|---------------------------------|
G|-5---4---------------------------|---------------------------------|
D|---------7---5---4-------5---4---|---------------------------------|
A|---------------------------------|-7-------------------------------|
E|---------------------------------|---------------------------------|





  VERSE



e|-------------------------3----/--|-7-------------------------------|
B|-5---------------5---------------|-------------------------8-------|
G|-4-------------------------------|---------------------------------|
D|-5-------------------------------|---------------------------------|
A|---------------------------------|---------------------------------|
E|---------------------------------|---------------------------------|





e|-------------------------3---5---|-3-------------------------------|
B|-7-------------------------------|---------------------------------|
G|---------------------------------|---------------------------------|
D|---------------------------------|---------------------------------|
A|---------------------------------|---------------------------------|
E|---------------------------------|---------------------------------|





e|---------------------------------|---------------------------------|
B|---------5---------------3-------|---------------------------------|
G|-5---7-----------4---5-----------|-----4---5---------------4-------|
D|---------------------------------|-7---------------5---7-----------|
A|---------------------------------|---------------------------------|
E|---------------------------------|---------------------------------|





e|---------------------------------|---------------------------------|
B|---------------------------------|---------------------------------|
G|-5---4---------------------------|---------------------------------|
D|---------7---5---4-------5---4---|---------------------------------|
A|---------------------------------|-7-------------------------------|
E|---------------------------------|---------------------------------|





e|---------------------------------|
B|---------------------------------|
G|---------------------------------|
D|---------------------------------|
A|---------------------------------|
E|---------------------------------|





  VERSE



e|---------------------------------|---------------------------------|
B|---------------------------------|---------------------------------|
G|---------------------------------|---------------------------------|
D|---------------------------------|-5---5---5---5---5---5-----------|
A|-------------------------7---7---|-------------------------7---7---|
E|-7---7---7---7---7---7-----------|---------------------------------|





e|---------------------------------|---------------------------------|
B|---------------------------------|---------------------------------|
G|---------------------------------|---------------------------------|
D|---------------------------------|---------------------------------|
A|-6---6---6---6---6---6---7---9---|-7---7---7---7---7---7---7---7---|
E|---------------------------------|---------------------------------|





e|---------------------------------|---------------------------------|
B|---------------------------------|---------------------------------|
G|---------------------------------|---------------------------------|
D|---------------------------------|---------------------------------|
A|-------------------------5---7---|---------------------------------|
E|-8---8---8---8---8---8-----------|-7---7---7---7---7---7---7---7---|





e|---------------------------------|---------------------------------|
B|---------------------------------|---------------------------------|
G|---------------------------------|---------------------------------|
D|---------------------------------|---------------------------------|
A|-3---2---0-----------------------|---------------------------------|
E|-------------3---2-------3---2---|-0-------------------------------|





  VERSE



e|---------------------------------|---------------------------------|
B|---------------------------------|---------------------------------|
G|---------------------------------|-4---4---4---4---4---4-----------|
D|-------------------------5---5---|-------------------------7---7---|
A|-----------------7---7-----------|---------------------------------|
E|-7---7---7---7-------------------|---------------------------------|





e|---------------------------------|---------------------------------|
B|---------------------------------|---------------------------------|
G|---------------------------------|---------------------------------|
D|-4---4---4---4---4---4---5---7---|-5---5---5---5---5---5---5---5---|
A|---------------------------------|---------------------------------|
E|---------------------------------|---------------------------------|





e|---------------------------------|---------------------------------|
B|---------------------------------|---------------------------------|
G|---------------------------------|---------------------------------|
D|---------2-----------------------|---------------------------------|
A|-3---5-----------2---3---5-------|-----2---3---------------2-------|
E|---------------------------------|-5---------------3---5-----------|





e|---------------------------------|---------------------------------|
B|---------------------------------|---------------------------------|
G|---------------------------------|---------------------------------|
D|---------------------------------|---------------------------------|
A|-3---2---0-----------------------|---------------------------------|
E|-------------3---2-------3---2---|-0-------------------------------|





  BRIDGE



e|-7-----------------------8-------|-----------------7---------------|
B|---------------------------------|---------------------------------|
G|---------------------------------|---------------------------------|
D|---------------------------------|---------------------------------|
A|---------------------------------|---------------------------------|
E|---------------------------------|---------------------------------|





e|-------------------------5---5---|-7---7---5-----------------------|
B|-----------------5---5-----------|---------------------------------|
G|---------5---5-------------------|---------------------------------|
D|-7---7---------------------------|---------------------------------|
A|---------------------------------|---------------------------------|
E|---------------------------------|---------------------------------|





e|-5-----------------------7-------|-----------------5---------------|
B|---------------------------------|---------------------------------|
G|---------------------------------|---------------------------------|
D|---------------------------------|---------------------------------|
A|---------------------------------|---------------------------------|
E|---------------------------------|---------------------------------|





e|-------------------------3---3---|-5---5---3-----------------------|
B|-----------------3---3-----------|---------------------------------|
G|---------4---4-------------------|---------------------------------|
D|-5---5---------------------------|---------------------------------|
A|---------------------------------|---------------------------------|
E|---------------------------------|---------------------------------|





e|-------------------------5-------|---------------------------------|
B|-7-------------------------------|-----------------8---------------|
G|---------------------------------|---------------------------------|
D|---------------------------------|---------------------------------|
A|---------------------------------|---------------------------------|
E|---------------------------------|---------------------------------|





e|---------------------------------|---------------------------------|
B|-------------------------5---5---|-7---7---5-----------------------|
G|-----------------4---4-----------|---------------------------------|
D|---------5---5-------------------|---------------------------------|
A|-7---7---------------------------|---------------------------------|
E|---------------------------------|---------------------------------|





e|-7-----------------------7-------|---------7---------------7-------|
B|---------------------------------|---------------------------------|
G|---------------------------------|---------------------------------|
D|-----------------9---------------|-7---------------5---------------|
A|---------------------------------|---------------------------------|
E|---------------------------------|---------------------------------|





  VERSE



e|---------------------------------|---------------------------------|
B|---------------------------------|---------------------------------|
G|---------------------------------|---------------------------------|
D|---------------------------------|-5---5---5---5---5---5-----------|
A|-------------------------7---7---|-------------------------7---7---|
E|-7---7---7---7---7---7-----------|---------------------------------|





e|---------------------------------|---------------------------------|
B|---------------------------------|---------------------------------|
G|---------------------------------|---------------------------------|
D|---------------------------------|---------------------------------|
A|-6---6---6---6---6---6---7---9---|-7---7---7---7---7---7---7---7---|
E|---------------------------------|---------------------------------|





e|---------------------------------|---------------------------------|
B|---------------------------------|---------------------------------|
G|---------------------------------|---------------------------------|
D|---------------------------------|---------------------------------|
A|-------------------------5---7---|---------------------------------|
E|-8---8---8---8---8---8-----------|-7---7---7---7---7---7---7---7---|





e|---------------------------------|---------------------------------|
B|---------------------------------|---------------------------------|
G|---------------------------------|---------------------------------|
D|---------------------------------|---------------------------------|
A|-3---2---0-----------------------|---------------------------------|
E|-------------3---2-------3---2---|-0-------------------------------|





  VERSE



e|---------------------------------|---------------------------------|
B|---------------------------------|---------------------------------|
G|---------------------------------|-4---4---4---4---4---4-----------|
D|-------------------------5---5---|-------------------------7---7---|
A|-----------------7---7-----------|---------------------------------|
E|-7---7---7---7-------------------|---------------------------------|





e|---------------------------------|---------------------------------|
B|---------------------------------|---------------------------------|
G|---------------------------------|---------------------------------|
D|-4---4---4---4---4---4---5---7---|-5---5---5---5---5---5---5---5---|
A|---------------------------------|---------------------------------|
E|---------------------------------|---------------------------------|





e|---------------------------------|---------------------------------|
B|---------------------------------|---------------------------------|
G|---------------------------------|---------------------------------|
D|---------2-----------------------|---------------------------------|
A|-3---5-----------2---3---5-------|-----2---3---------------2-------|
E|---------------------------------|-5---------------3---5-----------|





e|---------------------------------|---------------------------------|
B|---------------------------------|---------------------------------|
G|---------------------------------|---------------------------------|
D|---------------------------------|---------------------------------|
A|-3---2---0-----------------------|---------------------------------|
E|-------------3---2-------3---2---|-0-------------------------------|





  BRIDGE



e|-7-----------------------8-------|-----------------7---------------|
B|---------------------------------|---------------------------------|
G|---------------------------------|---------------------------------|
D|---------------------------------|---------------------------------|
A|---------------------------------|---------------------------------|
E|---------------------------------|---------------------------------|





e|-------------------------5---5---|-7---7---5-----------------------|
B|-----------------5---5-----------|---------------------------------|
G|---------5---5-------------------|---------------------------------|
D|-7---7---------------------------|---------------------------------|
A|---------------------------------|---------------------------------|
E|---------------------------------|---------------------------------|





e|-5-----------------------7-------|-----------------5---------------|
B|---------------------------------|---------------------------------|
G|---------------------------------|---------------------------------|
D|---------------------------------|---------------------------------|
A|---------------------------------|---------------------------------|
E|---------------------------------|---------------------------------|





e|-------------------------3---3---|-5---5---3-----------------------|
B|-----------------3---3-----------|---------------------------------|
G|---------4---4-------------------|---------------------------------|
D|-5---5---------------------------|---------------------------------|
A|---------------------------------|---------------------------------|
E|---------------------------------|---------------------------------|





e|-------------------------5-------|---------------------------------|
B|-7-------------------------------|-----------------8---------------|
G|---------------------------------|---------------------------------|
D|---------------------------------|---------------------------------|
A|---------------------------------|---------------------------------|
E|---------------------------------|---------------------------------|





e|---------------------------------|-------------------------7-------|
B|-------------------------5---5---|-7---7---5-----------------------|
G|-----------------4---4-----------|---------------------------------|
D|---------5---5-------------------|---------------------------------|
A|-7---7---------------------------|---------------------------------|
E|---------------------------------|---------------------------------|





e|-7-----------------------7-------|---------7---------------7-------|
B|---------------------------------|---------------------------------|
G|---------------------------------|---------------------------------|
D|-----------------9---------------|-7---------------5---------------|
A|---------------------------------|---------------------------------|
E|---------------------------------|---------------------------------|





  VERSE



e|---------------------------------|-3-------------------------------|
B|-5-----------------------5-------|-------------------------5-------|
G|-4-------------------------------|---------------------------------|
D|-5-------------------------------|---------------------------------|
A|---------------------------------|---------------------------------|
E|---------------------------------|---------------------------------|





e|---------------------------------|---------------------------------|
B|-4-----------------------5---7---|-5-------------------------------|
G|---------------------------------|---------------------------------|
D|---------------------------------|---------------------------------|
A|---------------------------------|---------------------------------|
E|---------------------------------|---------------------------------|





e|---------------------------------|---------------------------------|
B|-----------------------------5---|---------------------------------|
G|-5-----------------------7-------|-4-------------------------------|
D|---------------------------------|---------------------------------|
A|---------------------------------|---------------------------------|
E|---------------------------------|---------------------------------|





e|---------------------------------|---------------------------------|
B|---------------------------------|---------------------------------|
G|-5---4---------------------------|---------------------------------|
D|---------7---5---4-------5---4---|---------------------------------|
A|---------------------------------|-7-------------------------------|
E|---------------------------------|---------------------------------|





  VERSE



e|-------------------------3----/--|-7-------------------------------|
B|-5---------------5---------------|-------------------------8-------|
G|-4-------------------------------|---------------------------------|
D|-5-------------------------------|---------------------------------|
A|---------------------------------|---------------------------------|
E|---------------------------------|---------------------------------|





e|-------------------------3---5---|-3-------------------------------|
B|-7-------------------------------|---------------------------------|
G|---------------------------------|---------------------------------|
D|---------------------------------|---------------------------------|
A|---------------------------------|---------------------------------|
E|---------------------------------|---------------------------------|





e|---------------------------------|---------------------------------|
B|---------5---------------3-------|---------------------------------|
G|-5---7-----------4---5-----------|-----4---5---------------4-------|
D|---------------------------------|-7---------------5---7-----------|
A|---------------------------------|---------------------------------|
E|---------------------------------|---------------------------------|





e|---------------------------------|---------------------------------|
B|---------------------------------|---------------------------------|
G|-5---4---------------------------|---------------------------------|
D|---------7---5---4-------5---4---|---------------------------------|
A|---------------------------------|-7-------------------------------|
E|---------------------------------|---------------------------------|





  OUTRO



e|---------------------------------|---------------------------------|
B|---------------------------------|---------------------------------|
G|---------------------------------|---------------------------------|
D|---------------------------------|---------------------------------|
A|---------------------------------|---------------------------------|
E|-3---------------2---------------|-1---------------0---------------|





e|---------------------------------|---------------------------------|
B|---------------------------------|---------------------------------|
G|---------------------------------|---------------------------------|
D|---------------------------------|---------------------------------|
A|---------------------------------|---------------------------------|
E|-3---------------2---------------|-1---------------0---------------|





e|---------------------------------|---------------------------------|
B|---------------------------------|---------------------------------|
G|---------------------------------|---------------------------------|
D|---------------------------------|---------------------------------|
A|---------------------------------|---------------------------------|
E|-3---------------2---------------|-1---------------0---------------|





e|-0-------------------------------|---------------------------------|
B|-0-------------------------------|---------------------------------|
G|-0-------------------------------|---------------------------------|
D|-2-------------------------------|---------------------------------|
A|-2-------------------------------|---------------------------------|
E|-0-------------------------------|---------------------------------|
Добавлено: 07.07.2012
Другие материалы по этой песне:
  • Аккорды и текст

Страница создана 07.07.2012
http://primanota.ru/ventures/rap-city-chords.htm
Привет, Гость.
Предлагаем пройти революционный курс по гитаре.
Подарок от PrimaNota.Ru, забирай!