PrimaNota.ru - самый крупный в мире бесплатный архив песенных текстов, аккордов, табулатур и нот


Ventures - Penetration - таба, бас-таба, видео

Регистрация Запомнить меня
Войти через:  Facebook Google Twitter Vk Yandex Mail.ru

Ventures - Penetration - таба, бас-таба, видео

Печатать
Просмотров: 138
PENETRATION

The Ventures


VERSE

   N.C. (G)
e|-10------8-------6-------5-------|---------------------5-----------|
B|---------------------------------|-8-------6---8-----------8---6---|
G|---------------------------------|---------------------------------|
D|---------------------------------|---------------------------------|
A|---------------------------------|---------------------------------|
E|---------------------------------|---------------------------------|



e|---------------------------------|---------------------------------|
B|-8-------------------------------|---------------------------------|
G|---------------------------------|---------------------------------|
D|---------------------------------|---------------------------------|
A|---------------------------------|---------------------------------|
E|---------------------------------|---------------------------------|



e|-10------8-------6-------5-------|---------------------5-----------|
B|---------------------------------|-8-------6---8-----------8---6---|
G|---------------------------------|---------------------------------|
D|---------------------------------|---------------------------------|
A|---------------------------------|---------------------------------|
E|---------------------------------|---------------------------------|



e|---------------------------------|---------------------------------|
B|-8-------------------------------|---------------------------------|
G|---------------------------------|---------------------------------|
D|---------------------------------|---------------------------------|
A|---------------------------------|---------------------------------|
E|---------------------------------|---------------------------------|


   (C)
e|-15------13------11------10------|-8-------6---8-------10--8---6---|
B|---------------------------------|---------------------------------|
G|---------------------------------|---------------------------------|
D|---------------------------------|---------------------------------|
A|---------------------------------|---------------------------------|
E|---------------------------------|---------------------------------|



e|-8-------------------------------|---------------------------------|
B|---------------------------------|---------------------------------|
G|---------------------------------|---------------------------------|
D|---------------------------------|---------------------------------|
A|---------------------------------|---------------------------------|
E|---------------------------------|---------------------------------|


   (G)
e|-10------8-------6-------5-------|---------------------5-----------|
B|---------------------------------|-8-------6---8-----------8---6---|
G|---------------------------------|---------------------------------|
D|---------------------------------|---------------------------------|
A|---------------------------------|---------------------------------|
E|---------------------------------|---------------------------------|



e|---------------------------------|---------------------------------|
B|-8-------------------------------|---------------------------------|
G|---------------------------------|---------------------------------|
D|---------------------------------|---------------------------------|
A|---------------------------------|---------------------------------|
E|---------------------------------|---------------------------------|


   Bb                                A           G#
e|-6-----------6-----------6-------|-5-----------4-----------4-------|
B|-6-----------6-----------6-------|-5-----------4-----------4-------|
G|-7-----------7-----------7-------|-6-----------5-----------5-------|
D|-8-----------8-----------8-------|-7-----------6-----------6-------|
A|---------------------------------|---------------------------------|
E|---------------------------------|---------------------------------|


   Gm
e|-3-------------------------------|---------------------------------|
B|-3-------------------------------|---------------------------------|
G|-3-------------------------------|---------------------------------|
D|-5-------------------------------|---------------------------------|
A|---------------------------------|---------------------------------|
E|---------------------------------|---------------------------------|


VERSE

   N.C. (G)
e|---------------------------------|---------------------------------|
B|---------------------------------|---------------------------------|
G|-7-------5-----------------------|---------------------------------|
D|-----------------8-------7-------|-5-----------5-------7---5-------|
A|---------------------------------|---------8-------------------8---|
E|---------------------------------|---------------------------------|
   P.M.-----------------...


e|---------------------------------|---------------------------------|
B|---------------------------------|---------------------------------|
G|---------------------------------|---------------------------------|
D|-5-------------------------------|---------------------------------|
A|---------------------------------|---------------------------------|
E|---------------------------------|---------------------------------|



e|---------------------------------|---------------------------------|
B|---------------------------------|---------------------------------|
G|-7-------5-----------------------|---------------------------------|
D|-----------------8-------7-------|-5-----------5-------7---5-------|
A|---------------------------------|---------8-------------------8---|
E|---------------------------------|---------------------------------|



e|---------------------------------|---------------------------------|
B|---------------------------------|---------------------------------|
G|---------------------------------|---------------------------------|
D|-5-------------------------------|---------------------------------|
A|---------------------------------|---------------------------------|
E|---------------------------------|---------------------------------|


   (C)
e|---------------------------------|---------------------------------|
B|-8-------6-----------------------|---------------------------------|
G|-----------------8-------7-------|-5-----------5-------7---5-------|
D|---------------------------------|---------8-------------------8---|
A|---------------------------------|---------------------------------|
E|---------------------------------|---------------------------------|



e|---------------------------------|---------------------------------|
B|---------------------------------|---------------------------------|
G|-5-------------------------------|---------------------------------|
D|---------------------------------|---------------------------------|
A|---------------------------------|---------------------------------|
E|---------------------------------|---------------------------------|


   (G)
e|---------------------------------|---------------------------------|
B|---------------------------------|---------------------------------|
G|-7-------5-----------------------|---------------------------------|
D|-----------------8-------7-------|-5-----------5-------7---5-------|
A|---------------------------------|---------8-------------------8---|
E|---------------------------------|---------------------------------|



e|---------------------------------|---------------------------------|
B|---------------------------------|---------------------------------|
G|---------------------------------|---------------------------------|
D|-5-------------------------------|---------------------------------|
A|---------------------------------|---------------------------------|
E|---------------------------------|---------------------------------|
...------------P.M.

   Bb                                A           G#
e|-6-----------6-----------6-------|-5-----------4-----------4-------|
B|-6-----------6-----------6-------|-5-----------4-----------4-------|
G|-7-----------7-----------7-------|-6-----------5-----------5-------|
D|-8-----------8-----------8-------|-7-----------6-----------6-------|
A|---------------------------------|---------------------------------|
E|---------------------------------|---------------------------------|


   Gm
e|-3-------------------------------|---------------------------------|
B|-3-------------------------------|---------------------------------|
G|-3-------------------------------|---------------------------------|
D|-5-------------------------------|---------------------------------|
A|---------------------------------|---------------------------------|
E|---------------------------------|---------------------------------|


BRIDGE

   C
e|---------------------------------|---------------------------------|
B|-5---------------------------5---|-----5-----------------------5---|
G|---------5---------------5-------|-------------5-----------5-------|
D|-----------------5---------------|-----------------5---------------|
A|---------------------------------|---------------------------------|
E|---------------------------------|---------------------------------|


   Bb
e|---------------------------------|---------------------------------|
B|-6---------------------------6---|-----6-----------------------6---|
G|---------7---------------7-------|-------------7-----------7-------|
D|-----------------8---------------|-----------------8---------------|
A|---------------------------------|---------------------------------|
E|---------------------------------|---------------------------------|


   G#
e|-4---------------------------4---|-----4-----------------------4---|
B|---------4---------------4-------|-------------4-----------4-------|
G|-----------------5---------------|-----------------5---------------|
D|---------------------------------|---------------------------------|
A|---------------------------------|---------------------------------|
E|---------------------------------|---------------------------------|


   Bb
e|-6---------------------------6---|-----6-----------------------6---|
B|---------6---------------6-------|-------------6-----------6-------|
G|-----------------7---------------|-----------------7---------------|
D|---------------------------------|---------------------------------|
A|---------------------------------|---------------------------------|
E|---------------------------------|---------------------------------|


   C
e|---------------------------------|---------------------------------|
B|-5---------------------------5---|-----5-----------------------5---|
G|---------5---------------5-------|-------------5-----------5-------|
D|-----------------5---------------|-----------------5---------------|
A|---------------------------------|---------------------------------|
E|---------------------------------|---------------------------------|


   Bb
e|---------------------------------|---------------------------------|
B|-6---------------------------6---|-----6-----------------------6---|
G|---------7---------------7-------|-------------7-----------7-------|
D|-----------------8---------------|-----------------8---------------|
A|---------------------------------|---------------------------------|
E|---------------------------------|---------------------------------|


   G#
e|-4---------------------------4---|-----4-----------------------4---|
B|---------4---------------4-------|-------------4-----------4-------|
G|-----------------5---------------|-----------------5---------------|
D|---------------------------------|---------------------------------|
A|---------------------------------|---------------------------------|
E|---------------------------------|---------------------------------|


   N.C. (G)
e|-7-----------7-----------7-------|-----7-----------7---------------|
B|-----8-----------8-----------8---|---------8-----------------------|
G|---------7-----------7-----------|-7-----------7-------------------|
D|---------------------------------|---------------------------------|
A|---------------------------------|---------------------------------|
E|---------------------------------|---------------------------------|



e|---------------------------------|---------------------------------|
B|---------------------------------|---------------------------------|
G|---------------------------------|---------------------------------|
D|---------------------------------|---------------------------------|
A|---------------------------------|---------------------------------|
E|---------------------------------|---------------------------------|


VERSE

   N.C. (G)
e|-10------8-------6-------5-------|---------------------5-----------|
B|---------------------------------|-8-------6---8-----------8---6---|
G|---------------------------------|---------------------------------|
D|---------------------------------|---------------------------------|
A|---------------------------------|---------------------------------|
E|---------------------------------|---------------------------------|



e|---------------------------------|---------------------------------|
B|-8-------------------------------|---------------------------------|
G|---------------------------------|---------------------------------|
D|---------------------------------|---------------------------------|
A|---------------------------------|---------------------------------|
E|---------------------------------|---------------------------------|



e|-10------8-------6-------5-------|---------------------5-----------|
B|---------------------------------|-8-------6---8-----------8---6---|
G|---------------------------------|---------------------------------|
D|---------------------------------|---------------------------------|
A|---------------------------------|---------------------------------|
E|---------------------------------|---------------------------------|



e|---------------------------------|---------------------------------|
B|-8-------------------------------|---------------------------------|
G|---------------------------------|---------------------------------|
D|---------------------------------|---------------------------------|
A|---------------------------------|---------------------------------|
E|---------------------------------|---------------------------------|


   (C)
e|-15------13------11------10------|-8-------6---8-------10--8---6---|
B|---------------------------------|---------------------------------|
G|---------------------------------|---------------------------------|
D|---------------------------------|---------------------------------|
A|---------------------------------|---------------------------------|
E|---------------------------------|---------------------------------|



e|-8-------------------------------|---------------------------------|
B|---------------------------------|---------------------------------|
G|---------------------------------|---------------------------------|
D|---------------------------------|---------------------------------|
A|---------------------------------|---------------------------------|
E|---------------------------------|---------------------------------|


   (G)
e|-10------8-------6-------5-------|---------------------5-----------|
B|---------------------------------|-8-------6---8-----------8---6---|
G|---------------------------------|---------------------------------|
D|---------------------------------|---------------------------------|
A|---------------------------------|---------------------------------|
E|---------------------------------|---------------------------------|



e|---------------------------------|---------------------------------|
B|-8-------------------------------|---------------------------------|
G|---------------------------------|---------------------------------|
D|---------------------------------|---------------------------------|
A|---------------------------------|---------------------------------|
E|---------------------------------|---------------------------------|


   Bb                                A           G#
e|-6-----------6-----------6-------|-5-----------4-----------4-------|
B|-6-----------6-----------6-------|-5-----------4-----------4-------|
G|-7-----------7-----------7-------|-6-----------5-----------5-------|
D|-8-----------8-----------8-------|-7-----------6-----------6-------|
A|---------------------------------|---------------------------------|
E|---------------------------------|---------------------------------|


   Gm
e|-3-------------------------------|---------------------------------|
B|-3-------------------------------|---------------------------------|
G|-3-------------------------------|---------------------------------|
D|-5-------------------------------|---------------------------------|
A|---------------------------------|---------------------------------|
E|---------------------------------|---------------------------------|


OUTRO


   Bb                                A           G#
e|-6-----------6-----------6-------|-5-----------4-----------4-------|
B|-6-----------6-----------6-------|-5-----------4-----------4-------|
G|-7-----------7-----------7-------|-6-----------5-----------5-------|
D|-8-----------8-----------8-------|-7-----------6-----------6-------|
A|---------------------------------|---------------------------------|
E|---------------------------------|---------------------------------|


   Gm
e|-3-------------------------------|---------------------------------|
B|-3-------------------------------|---------------------------------|
G|-3-------------------------------|---------------------------------|
D|-5-------------------------------|---------------------------------|
A|---------------------------------|---------------------------------|
E|---------------------------------|---------------------------------|


   Bb                                A           G#
e|-6-----------6-----------6-------|-5-----------4-----------4-------|
B|-6-----------6-----------6-------|-5-----------4-----------4-------|
G|-7-----------7-----------7-------|-6-----------5-----------5-------|
D|-8-----------8-----------8-------|-7-----------6-----------6-------|
A|---------------------------------|---------------------------------|
E|---------------------------------|---------------------------------|


   Gm
e|-3-------------------------------|---------------------------------|
B|-3-------------------------------|---------------------------------|
G|-3-------------------------------|---------------------------------|
D|-5-------------------------------|---------------------------------|
A|---------------------------------|---------------------------------|
E|---------------------------------|---------------------------------|



e|-3-------------------------------|---------------------------------|
B|-3-------------------------------|---------------------------------|
G|-3-------------------------------|---------------------------------|
D|-5-------------------------------|---------------------------------|
A|---------------------------------|---------------------------------|
E|---------------------------------|---------------------------------|
Добавлено: 21.05.2012
Другие материалы по этой песне:

Страница создана 19.03.2012
http://primanota.ru/ventures/penetration-chords.htm
Привет, Гость.
Предлагаем пройти революционный курс по гитаре.
Подарок от PrimaNota.Ru, забирай!