PrimaNota.ru - самый крупный в мире бесплатный архив песенных текстов, аккордов, табулатур и нот


Ventures - Orange Fire - таба, бас-таба, видео

Регистрация Запомнить меня
Войти через:  Facebook Google Twitter Vk Yandex Mail.ru

Ventures - Orange Fire - таба, бас-таба, видео

Печатать
Просмотров: 107
ORANGE FIRE

As recorded by The Ventures
(From the 1961 Album THE COLORFUL VENTURES)

Music by Bob Bogle, Nokie Edwards & Don Wilson 
Transcribed by Slowhand

Gtr I (E A D G B E) - 'Don Wilson - Electric Guitar'
Gtr II (E A D G B E) - 'Bob Bogle - Electric Guitar'

  Q=154
  A5
 4/4
  Gtr I
   E E E E  E E E E    E E E E  E E E E
|-------------------|-------------------|
|-------------------|-------------------|
|-------------------|-------------------|
|-------------------|-------------------|
|-/7-7-7-7-/7-7-7-7-|-/7-7-7-7-/7-7-7-7-|
|-/5-5-5-5-/5-5-5-5-|-/5-5-5-5-/5-5-5-5-|
|
| Gtr II
|  W                   H        Q   Q
|-------------------|-------------------|
|-------------------|-------------------|
|-------------------|-------------------|
|-------------------|-------------------|
|-------------------|---------------7---|
|-------------------|-------------------|


   E E E E  E E E E    E E E E  E E E E
|-------------------|-------------------||
|-------------------|-------------------||
|-------------------|-------------------||
|-------------------|-------------------||
|-/7-7-7-7-/7-7-7-7-|-/7-7-7-7-/7-7-7-7-||
|-/5-5-5-5-/5-5-5-5-|-/5-5-5-5-/5-5-5-5-||
|
|  E E Q    H          H        Q   Q
|-------------------|-------------------||
|-------------------|-------------------||
|-------------------|-------------------||
|-------------------|-------------------||
|-------------------|---------------7---||
|--5----------------|-------------------||


    A5
     E E E E  E E E E    E E E E  E  E E E
||--------------------|--------------------|
||o-------------------|--------------------|
||--------------------|--------------------|
||--------------------|--------------------|
||o-/7-7-7-7-/7-7-7-7-|-/7-7-7-7-/7--7-7-7-|
||--/5-5-5-5-/5-5-5-5-|-/5-5-5-5-/5--5-5-5-|
|
|    Q   E E  Q   E E    Q   E E +E  E Q
||-------5------------|--------------------|
||o------5-7--5-------|--5---7-5-(5)-------|
||---------7--6-------|--6---7-6-(6)-------|
||----------------7-7-|--------------------|
||o-------------------|----------------7---|
||---5----------------|--------------------|


   E E E E  E E E E    E E E E  E  E E E
|-------------------|--------------------|
|-------------------|--------------------|
|-------------------|--------------------|
|-------------------|--------------------|
|-/7-7-7-7-/7-7-7-7-|-/7-7-7-7-/7--7-7-7-|
|-/5-5-5-5-/5-5-5-5-|-/5-5-5-5-/5--5-5-5-|
|
|  Q   E E  Q   Q      E E E E +E  E Q
|------5------------|--------------------|
|------5-7--5-------|--5---7-5-(5)-------|
|--------7--6-------|--6---7-6-(6)-------|
|---------------7---|----7-----------7---|
|-------------------|--------------------|
|--5----------------|--------------------|


  D5
   E E E E  E E E E    E E E E  E  E E E
|-------------------|--------------------|
|-------------------|--------------------|
|-------------------|--------------------|
|-/7-7-7-7-/7-7-7-7-|-/7-7-7-7-/7--7-7-7-|
|-/5-5-5-5-/5-5-5-5-|-/5-5-5-5-/5--5-5-5-|
|-------------------|--------------------|
|
|  Q   E E  Q   E E    E E E E +Q    Q
|------5------------|--------------------|
|------7-7--5-------|--5---7-5-(5)-------|
|--------7--5-------|--5---7-5-(5)-------|
|---------------7-7-|----7-----------4---|
|--5----------------|--------------------|
|-------------------|--------------------|


  A5
   E E E E  E E E E    E E E E  E  E E E
|-------------------|---------------------|
|-------------------|---------------------|
|-------------------|---------------------|
|-------------------|---------------------|
|-/7-7-7-7-/7-7-7-7-|-/7-7-7-7-/7--7-7-7--|
|-/5-5-5-5-/5-5-5-5-|-/5-5-5-5-/5--5-5-5--|
|
|  Q   E E  Q   E E    E E E E +E  E E E
|------5------------|---------------------|
|------5-7--5-------|--5---7-5-(5)--------|
|--------7--6-------|--6---7-6-(6)--------|
|---------------7-7-|----7----------------|
|-------------------|---------------------|
|--5----------------|--------------5-7-5--|


  1.
  E5                    D5
   E E E E  E E  E  E    E E E E  E E  E  E
|---------------------|---------------------|
|---------------------|---------------------|
|---------------------|---------------------|
|-/9-9-9-9-/9-9--9--9-|-/7-7-7-7-/7-7--7--7-|
|-/7-7-7-7-/7-7--7--7-|-/5-5-5-5-/5-5--5--5-|
|---------------------|---------------------|
|
|  Q   E E  E E +E  E    Q   Q    E E +E  E
|---------------------|---------------------|
|---------------------|---------------------|
|------7----7-7-(7)---|------5----4-5-(5)---|
|------9-7--7-9-(9)-7-|------7----7-7-(7)-7-|
|--7------------------|--5------------------|
|---------------------|---------------------|


  A5                   E7
   E  E E E  E E E E   E E E E E E E E
|--------------------|-------------------||
|--------------------|-9-9-9-9-9-9-9-9--o||
|--------------------|-7-7-7-7-7-7-7-7---||
|--------------------|-9-9-9-9-9-9-9-9---||
|-/7--7-7-7-/7-7-7-7-|-7-7-7-7-7-7-7-7--o||
|-/5--5-5-5-/5-5-5-5-|-------------------||
|
| +Q    Q    E Q   E   E E E E E E Q
|--------------------|-------------------||
|-------7----5-------|-9-9-9-9-9-9------o||
|-------7----6-------|-7-7-7-7-7-7-------||
|-(7)----------7---7-|-9-9-9-9-9-9-------||
|--------------------|-7-7-7-7-7-7-7----o||
|--------------------|-------------------||


  2.
  E5                      D5
   E E E E  E  E   E  E    E E E E  E E E E
|-----------------------|-------------------|
|-----------------------|-------------------|
|-----------------------|-------------------|
|-/9-9-9-9-/9--9---9--9-|-/7-7-7-7-/7-7-7-7-|
|-/7-7-7-7-/7--7---7--7-|-/5-5-5-5-/5-5-5-5-|
|-----------------------|-------------------|
|
|  Q   E E  E  E  +E  E    Q   E E  E E E E
|-----------------------|-------------------|
|-----------------------|------7----5-7-5-7-|
|------9----9--9--(9)---|------7----5-7-5-7-|
|------9---11-11-(11)---|--------7----------|
|--7-----7------------7-|--5----------------|
|-----------------------|-------------------|


  A5
   E E E E  E E E E    E E E E  E E E E
|-------------------|--------------------||
|-------------------|--------------------||
|-------------------|--------------------||
|-------------------|--------------------||
|-/7-7-7-7-/7-7-7-7-|-/7-7-7-7-/7-7-7-7--||
|-/5-5-5-5-/5-5-5-5-|-/5-5-5-5-/5-5-5-5--||
|
|  Q   E E  E E E E    E E E E  E E E E
|-------------------|--------------------||
|------7----5-----5-|--------------------||
|------7----5-6---6-|--------------------||
|--------7------7-7-|--------------------||
|-------------------|--7--------------4--||
|-------------------|----5-5-5--5-5-7----||


  D7                                     G
  E E E E E E E E    E E  E E  E E Q     E E E E E E E E   E E S  E. E E E E
|-----------------|-10---10------------|-3-3-3-3-3-3-3-3-|-3---3-(3)----------|
|-7-7-7-7-7-7-7-7-|-12---12------------|-3-3-3-3-3-3-3-3-|-5---4h=5--3--------|
|-5-5-5-5-5-5-5-5-|------------9-------|-4-4-4-4-4-4-4-4-|-----------4--------|
|-7-7-7-7-7-7-7-7-|-----------10-------|-5-5-5-5-5-5-5-5-|-------------5-5-5--|
|-5-5-5-5-5-5-5-5-|--------------------|-5-5-5-5-5-5-5-5-|--------------------|
|-----------------|--------------------|-3-3-3-3-3-3-3-3-|--------------------|
|
| Q   E E E E E E    E E  E E  E E E E   E E E E E E E E   Q   Q     E E E E
|-----------------|--------------------|-----------------|--------------------|
|-----7---5-7---7-|-------7----5-------|-----5-------5---|-5---5-----3-5------|
|-----7---5-7---7-|-------7----5-------|-----5---6-7-5-7-|-5---5-----4-----5--|
|-------7---------|---------7----7-7-5-|-------5-8-9---9-|---------------5----|
|-5---------------|--5-5---------------|-----------------|--------------------|
|-----------------|--------------------|-3-3-------------|--------------------|


  C7                                   F                 E
  E E E E E E E E    E E E E E E E E   E E E E E E E E   Q  Q  E S S E E
|-----------------|------------------|-1-1-1-1-1-1-1-1-|-0--0--0-0-0-0-0-||
|-5-5-5-5-5-5-5-5-|--5-5-5-5-5-5-5-5-|-1-1-1-1-1-1-1-1-|-0--0--0-0-0-0-0-||
|-3-3-3-3-3-3-3-3-|--3-3-3-3-3-3-3-3-|-2-2-2-2-2-2-2-2-|-1--1--1-1-1-1-1-||
|-5-5-5-5-5-5-5-5-|--5-5-5-5-5-5-5-5-|-3-3-3-3-3-3-3-3-|-2--2--2-2-2-2-2-||
|-3-3-3-3-3-3-3-3-|--3-3-3-3-3-3-3-3-|-3-3-3-3-3-3-3-3-|-2--2--2-2-2-2-2-||
|-----------------|------------------|-1-1-1-1-1-1-1-1-|-0--0--0-0-0-0-0-||
|
| E E Q   E E E E    Q   Q   E E Q     Q   Q   Q   Q     Q  Q  Q     Q
|-----------------|--8---------------|-1---1---1---1---|-0--0--0---------||
|-----5---3-5-3-5-|-10---5---3-5-----|-1---1---1---1---|-0--0--0---------||
|-----5---3-5-3-5-|------5---3-5-----|-2---2---2---2---|-1--1--1---------||
|-----------------|------5-----------|-3---3---3---3---|-2--2--2-----2---||
|-3-3-------------|------------------|-3---3---3---3---|-2--2--2---------||
|-----------------|------------------|-1---1---1---1---|-0--0--0---------||


  A
  E E E E E E E E   E E E E E E E E   E E  E E  E E E E   E E E E  E  E E E
|-5-5-5-5-5-5-5-5-|-5-5-5-5-5-5-5-5-|-5-5--5-5--5-5-5-5-|-5-5-5-5--5---------|
|-5-5-5-5-5-5-5-5-|-5-5-5-5-5-5-5-5-|-5-5--5-5--5-5-5-5-|-5-5-5-5--5---------|
|-6-6-6-6-6-6-6-6-|-6-6-6-6-6-6-6-6-|-6-6--6-6--6-6-6-6-|-6-6-6-6--6---------|
|-7-7-7-7-7-7-7-7-|-7-7-7-7-7-7-7-7-|-7-7--7-7--7-7-7-7-|-5-5-5-5--5---------|
|-7-7-7-7-7-7-7-7-|-7-7-7-7-7-7-7-7-|-7-7--7-7--7-7-7-7-|-7-7-7-7--7------7--|
|-5-5-5-5-5-5-5-5-|-5-5-5-5-5-5-5-5-|-5-5--5-5--5-5-5-5-|-5-5-5-5--5--5-7----|
|
| Q   E E Q   Q     Q   E E E E E E   Q    Q    E E E E   Q   E E +Q    Q
|-----5---5-------|-5-----5-5-------|------8----8-7-5---|-5-----5-(5)--------|
|-----5-7-5---7---|-5---7-5-5-------|-----10---10-8-7-7-|-5---7-5-(5)--------|
|-------7-----7---|-----7-6-6-------|------9----9-7-5-7-|-6---7-6-(6)--------|
|-----------------|-----------------|-----------------7-|-----7---------7----|
|-----------------|-------------4-7-|-------------------|--------------------|
|-5---------------|-----------7-----|-5-----------------|--------------------|


  D                D7                  A
  Q  E E E E E E   E E E E  E  E E E   E E E E E E E E   E E E E  E  E E E
|----------------|-------------------|---5-5-5-5-5-5-5-|-5-5-5-5--5---------|
|----7-7-7-7-7-7-|-7-7-7-7-----------|---5-5-5-5-5-5-5-|-5-5-5-5--5---------|
|----7-7-7-7-7-7-|-5-5-5-5-----------|---6-6-6-6-6-6-6-|-6-6-6-6--6---------|
|----7-7-7-7-7-7-|-7-7-7-7-----------|---7-7-7-7-7-7-7-|-5-5-5-5--5---------|
|-5--5-5-5-5-5-5-|-5-5-5-5-----5-6-7-|---7-7-7-7-7-7-7-|-7-7-7-7--7------7--|
|----------------|-------------------|-5-5-5-5-5-5-5-5-|-5-5-5-5--5--5-7----|
|
| Q  E E E E E E   Q   E E +Q    Q     Q   E E Q   E E   E E E E +Q    Q
|----5-----------|-------------------|-----5-----------|--------------------|
|----7-7-5---5-7-|-8---7-5-(5)-------|-----5-7-5-------|-5---7-5-(5)--------|
|------7-5---5-7-|-9---7-5-(5)-------|-------7-6-------|-6-6-7-6-(6)--------|
|----------7-----|-------------------|-------------7-7-|--------------------|
|-5--------------|---------------7---|-------------7---|--------------------|
|----------------|-------------------|-5---------------|--------------------|


  E                   D
  E E E E E E  E  E   Q  E E E E  E  E
|-------------------|------------------|
|---9-9-9-9-9--9--9-|----7-7-7-7--7--7-|
|---9-9-9-9-9--9--9-|----7-7-7-7--7--7-|
|-9-9-9-9-9-9--9--9-|----7-7-7-7--7--7-|
|-7-7-7-7-7-7--7--7-|-5--5-5-5-5--5--5-|
|-------------------|------------------|
|
| Q   Q   E E +E  E   Q  Q   E E +E  E
|-------------------|------------------|
|-------------------|------------------|
|-----7---7-7-(7)---|----5---5-5-(5)---|
|-----9---7-9-(9)-7-|----7---5-7-(7)-7-|
|-------------------|------------------|
|-------------------|------------------|


  A                   E7
  E E E E E E E E     E E E E +E   E  Q
|---5-5-5-5-5-5-5---|----------------------||
|---5-5-5-5-5-5-5---|-9-9-9-9-(9)----------||
|---6-6-6-6-6-6-6---|-7-7-7-7-(7)----------||
|---7-7-7-7-7-7-7---|-9-9-9-9-(9)----------||
|---7-7-7-7-7-7-7---|-7-7-7-7-(7)----------||
|-5-5-5-5-5-5-5-5---|----------------------||
|
| Q   E E Q   E S S   E E E E +E   E  E  E
|-------------------|-------------12-12-12-||
|-----7---5---5-5-5-|-9-9-9-9-(9)-13-13-13-||
|-----7---6---6-6-6-|-7-7-7-7-(7)----------||
|-------7-----------|-9-9-9-9-(9)----------||
|-------------------|-7-7-7-7-(7)----------||
|-------------------|----------------------||


  A
   E  E     E  E     E  E     E  E
|--5--5-----5--5-----5--5-----5--5----|
|--5--5-----5--5-----5--5-----5--5----|
|--6--6-----6--6-----6--6-----6--6----|
|--7--7-----7--7-----7--7-----7--7----|
|--7--7-----7--7-----7--7-----7--7----|
|--5--5-----5--5-----5--5-----5--5----|
|
| Gtr II
|  E  S  S  E  S  S  E  S  S  E  S  S
|-12-12-12-12-12-12-12-12-12-12-12-12-|
|-14-14-14-14-14-14-14-14-14-14-14-14-|
|-------------------------------------|
|-------------------------------------|
|-------------------------------------|
|-------------------------------------|


   E  E     E  E     E  E     E  E       E  E     E  E     E E  E  E
|--5--5-----5--5-----5--5-----5--5----|--5--5-----5--5-----5-5--5--5-----|
|--5--5-----5--5-----5--5-----5--5----|--5--5-----5--5-----5-5--5--5-----|
|--6--6-----6--6-----6--6-----6--6----|--6--6-----6--6-----6-6--6--6-----|
|--7--7-----7--7-----7--7-----7--7----|--5--5-----5--5-----5-5--5--5-----|
|--7--7-----7--7-----7--7-----7--7----|--7--7-----7--7-----7-7--7--7-----|
|--5--5-----5--5-----5--5-----5--5----|--5--5-----5--5-----5-5--5--5-----|
|
|  E  S  S  E  S  S  E  S  S  E  S  S    E  S  S  E  S  S  Q    E  S  S
|-12-12-12-12-12-12-12-12-12-12-12-12-|-12-12-12-12-12-12-12-------------|
|-14-14-14-14-14-14-14-14-14-14-14-14-|-14-14-14-14-14-14-14-------------|
|-------------------------------------|------------------------14-14-14--|
|-------------------------------------|------------------------14-14-14--|
|-------------------------------------|----------------------------------|
|-------------------------------------|----------------------------------|


                                D7
   E E  E  E   E   E  E  E    E  E  E  E  E  E  E  E
|--5-5--5--5---5---5--5--5-|-------------------------|
|--5-5--5--5---5---5--5--5-|-----7--7--7-----7--7--7-|
|--6-6--6--6---6---6--6--6-|-----5--5--5-----5--5--5-|
|--5-5--5--5---5---5--5--5-|-----7--7--7-----7--7--7-|
|--7-7--7--7---7---7--7--7-|-----5--5--5-----5--5--5-|
|--5-5--5--5---5---5--5--5-|-------------------------|
|
|  Q    E  E  +E   E  E  E    E  E  E  E  E  E  E  E
|--------------------------|-------------------------|
|--------------------------|-------------------------|
|-14---14-14-(14)----------|-------------------------|
|-14---14-14-(14)-------10-|-13-12-10-------10-------|
|-----------------10-12----|----------12-------12----|
|--------------------------|-------------12-------12-|


                                     A
   E  E     E  E     E     E  E  E    E E  E  E E E E E
|----------------------------------|--5-5--5--5-5-5-5-5-|
|-----7-----7--7-----------7--7--7-|--5-5--5--5-5-5-5-5-|
|-----5-----5--5-----------5--5--5-|--6-6--6--6-6-6-6-6-|
|-----7-----7--7-----------7--7--7-|--7-7--7--7-7-7-7-7-|
|-----5-----5--5-----------5--5--5-|--7-7--7--7-7-7-7-7-|
|----------------------------------|--5-5--5--5-5-5-5-5-|
|
|  E  E     E  E     S  S  E  E  E    Q    E  E E E E E
|----------------------------------|--------------------|
|----------------------------------|--------------------|
|----------------------------------|------------9-8-9-7-|
|-------------------13p12-10-------|------10-11---------|
|-12-12----12-12-------------12----|-12---11-12---------|
|-11-11b12-11-11b12-------------12-|--------------------|


                              E7
   E    E  E  E  E  E  E  E   E    E E    E E    E E    E
|--5----5--5--5--5--5--5--5-|-----------------------------|
|--5----5--5--5--5--5--5--5-|-9----9-9----9-9----9-9------|
|--6----6--6--6--6--6--6--6-|-7----7-7----7-7----7-7------|
|--5----5--5--5--5--5--5--5-|-9----9-9----9-9----9-9------|
|--7----7--7--7--7--7--7--7-|-7----7-7----7-7----7-7------|
|--5----5--5--5--5--5--5--5-|-----------------------------|
|
|  E    E  E  E  E  E  E  E   Q      Q      Q      Q
|---------------------------|-----------------------------|
|-10---10-10-10-10----------|-----------------------------|
|--7b9--7-----------9--9--9-|-9b10---9b10---9b10---9b10---|
|------------------11-11-11-|-----------------------------|
|---------------------------|-----------------------------|
|---------------------------|-----------------------------|


  D7                      A
  E E  E E E    E E   E   E E E S S E E E E
|-----------------------|-5-5-5-5-5-5-5-5-5-|
|-7-7--7-7-7----7-7---7-|-5-5-5-5-5-5-5-5-5-|
|-5-5--5-5-5----5-5---5-|-6-6-6-6-6-6-6-6-6-|
|-7-7--7-7-7----7-7---7-|-7-7-7-7-7-7-7-7-7-|
|-5-5--5-5-5----5-5---5-|-7-7-7-7-7-7-7-7-7-|
|-----------------------|-5-5-5-5-5-5-5-5-5-|
|
| E E  E E S S  E S S E   Q   E S S E E E E
|---8-------------------|-------------------|
|-----10-------10-------|-------------------|
|-9------9-9p8----8-7-5-|-------------------|
|-----------------------|-7-----------------|
|-----------------------|-------------------|
|-----------------------|-----5-5-5-5-5-5-5-|


  E E E E E E E E   E E E E E E Q      E E  E E E   E E E   E E E E E E Q
|-----------------|-----------------|---------------------|-----------------|
|-----------------|-----------------|---------------------|-----------------|
|-6---5-6---------|-----------------|-----------5---------|-----------------|
|-7-7-7---7-------|-----7-7-7-7-----|-------7-7-----7-5-7-|-----2-2-0-0-----|
|-------------3-4-|-5-5-------------|--5-5----------------|-----------------|
|-----------5-----|-----------------|---------------------|-3-3-------------|
|
| E E E E E E E E   E E E E E E E E    Q    Q   S S E E E   E E Q   Q   E E
|-----------------|-----------------|-10----8-----5-------|-----------------|
|-----------------|-----7---5-7-----|-12---10---7---5-----|-----5---3---5-3-|
|-----------------|-----7---5-7---7-|-----------------7---|-----5---4---5-4-|
|-----------------|-------7---------|-------------------7-|-----------------|
|-------------3-4-|-5-5-------------|---------------------|-----------------|
|-5-5-5-5-5-5-----|-----------------|---------------------|-3-3-------------|


                                                              F
  E     E E E E E E E   E E E E Q   E E    E E  E E E E E E   E S S Q  Q  Q
|---------------------|-----------------|-------------------|-1-1-1-1--1--1---|
|---------------------|-----------------|---------------1---|-1-1-1-1--1--1---|
|-------------0-2-0-2-|-------0-----2-0-|-------2-0-3-3---3-|-2-2-2-2--2--2---|
|---------2-2---------|-----2-----------|-------------------|-3-3-3-3--3--3---|
|---------------------|-3-3-------------|--3-3--------------|-----------------|
|-3-----3-------------|---------3-------|-------------------|-----------------|
|
| S  E.   Q   E E E E   Q   E E E E E E    Q    Q   Q   Q     E S S Q  Q  Q
|-3-(3)---------------|-----------------|--8----------------|-1-1-1-1--1--1---|
|-3h=5----5---3-------|-----5---3-5-3-5-|-10------------5---|-1-1-1-1--1--1---|
|---------4---4-------|-----5---3-5-3-5-|-------9---7---5---|-2-2-2-2--2--2---|
|---------------------|-------5---------|------10---8-------|-3-3-3-3--3--3---|
|-----------------1-2-|-3---------------|-------------------|-----------------|
|---------------3-----|-----------------|-------------------|-----------------|


  E                 A5
  E S S Q  Q  Q      E E E E  E E E E    E E E E  E  E E E    E E E E  E E E E
|-0-0-0-0--0--0--||-------------------|--------------------|-------------------|
|-0-0-0-0--0--0--||-------------------|--------------------|-------------------|
|-1-1-1-1--1--1--||-------------------|--------------------|-------------------|
|-2-2-2-2--2--2--||-------------------|--------------------|-------------------|
|-2-2-2-2--2--2--||-/7-7-7-7-/7-7-7-7-|-/7-7-7-7-/7--7-7-7-|-/7-7-7-7-/7-7-7-7-|
|-0-0-0-0--0--0--||-/5-5-5-5-/5-5-5-5-|-/5-5-5-5-/5--5-5-5-|-/5-5-5-5-/5-5-5-5-|
|
| Q     Q  Q  Q      Q   E E  Q   E E    Q   E E +E  E E E    Q   E E  Q   E E
|-0-----0--0-----||------5------------|--------------------|------5------------|
|-0-----0--0-----||------5-7--5-------|--5---7-5-(5)-5-7-5-|------5-7--5-------|
|-1-----1--1-----||--------7--6-------|--6---7-6-(6)---7---|--------7--6-------|
|-2-----2--2--2--||---------------7-7-|--------------------|---------------7-7-|
|----------------||-------------------|--------------------|-------------------|
|----------------||--5----------------|--------------------|--5----------------|


                         D5
   E E E E  E  S S E E    E E E E  E E E E
|----------------------|-------------------|
|----------------------|-------------------|
|----------------------|-------------------|
|--------------7-7-9-7-|-/7-7-7-7-/7-7-7-7-|
|-/7-7-7-7--7----------|-/5-5-5-5-/5-5-5-5-|
|-/5-5-5-5--5----------|-------------------|
|
|  Q   E E +E  E   E E    Q   E E  Q   E E
|----------------------|------5------------|
|--5---7-5-(5)---------|------5-7--5---7---|
|--6---7-6-(6)---------|--------7--5---7---|
|----------------------|-----------------7-|
|--------------------4-|--5----------------|
|--------------5---7---|-------------------|


                         A5
   E E E E  E  E +Q       E E E E  E E E E
|----------------------|-------------------|
|----------------------|-------------------|
|----------------------|-------------------|
|-/7-7-7-7--7--7-(7)---|-------------------|
|-/5-5-5-5--5----------|-/7-7-7-7-/7-7-7-7-|
|----------------------|-/5-5-5-5-/5-5-5-5-|
|
|  E E E E +E  E  E  E    Q   E E  Q   E E
|----------------------|------5------------|
|--5---7-5-(5)---------|------5-7--5-------|
|--5---7-5-(5)---------|--------7--6-------|
|----7-----------------|---------------7-7-|
|----------------------|-------------------|
|--------------0--2--4-|--5----------------|


                       E5
   E E E E  E  E E E    E E E E  E  E E E
|--------------------|--------------------|
|--------------------|--------------------|
|--------------------|--------------------|
|--------------------|-/9-9-9-9-/9--9-9-9-|
|-/7-7-7-7-/7--7-7-7-|-/7-7-7-7-/7--7-7-7-|
|-/5-5-5-5-/5--5-5-5-|--------------------|
|
|  Q   E E +E  E E E    Q   Q   +E  E E E
|--------------------|--------------------|
|--5---7-5-(5)-------|------9---(9)-9-9---|
|--6---7-6-(6)-------|------9---(9)-9-9---|
|--------------------|--------------------|
|--------------------|--7-----------------|
|--------------5-7-9-|--------------------|


  D5                        A     D
   E E  E E   E   E  E  E   Q  Q  Q  Q
|-------------------------|-5--5---------|
|-------------------------|-5--5--7--7---|
|-------------------------|-6--6--7--7---|
|-/7-7--7-7--/7---7--7--7-|-7--7--7--7---|
|-/5-5--5-5--/5---5--5--5-|-7--7--5--5---|
|-------------------------|-5--5---------|
|
|  Q    Q    +E   E  E  E   Q  Q  Q  Q
|-------------------------|-5--5---------|
|-------------------------|-5--5--7--7---|
|------11---(11)-11-11-11-|-6--6--7--7---|
|------12---(12)-12-12-12-|-7--7--7--7---|
|-------------------------|-7--7--5--5---|
|-10----------------------|-5--5---------|


  A
  Gtr I
  E S S E E H      +W
|-5-5-5-5-5-5----|-(5)----*|
|-5-5-5-5-5-5----|-(5)----*|
|-6-6-6-6-6-6----|-(6)----*|
|-7-7-7-7-7-7----|-(7)----*|
|-7-7-7-7-7-7----|-(7)----*|
|-5-5-5-5-5-5----|-(5)----*|


Duration Legend
---------------
W - whole; H - half; Q - quarter; E - 8th; S - 16th; T - 32nd; X - 64th; a - acciaccatura
+ - note tied to previous; . - note dotted; .. - note double dotted
Uncapitalized letters represent notes that are staccato (1/2 duration)
Irregular groupings are notated above the duration line
Duration letters will always appear directly above the note/fret number it represents the
duration for.  Duration letters with no fret number below them represent rests.  Multi-
bar rests are notated in the form Wxn, where n is the number of bars to rest for.  Low
melody durations appear below the staff

Tablature Legend
----------------
 h   - hammer-on
 p   - pull-off
 b   - bend
 pb  - pre-bend
 r   - bend release (if no number after the r, then release immediately)
 /\  - slide into or out of (from/to "nowhere")
 s   - legato slide
 S   - shift slide
  - natural harmonic
[n]  - artificial harmonic
n(n) - tapped harmonic
 ~   - vibrato
 tr  - trill
 T   - tap
 TP  - trem. picking
 PM  - palm muting
\n/  - tremolo bar dip; n = amount to dip
 \n  - tremolo bar down
 n/  - tremolo bar up
/n\  - tremolo bar inverted dip
 =   - hold bend; also acts as connecting device for hammers/pulls
 <>  - volume swell (louder/softer)
 x   - on rhythm slash represents muted slash
 o   - on rhythm slash represents single note slash

Misc Legend
-----------
 |  - bar
||  - double bar
||o - repeat start
o|| - repeat end
*|  - double bar (ending)
 :  - bar (freetime)
 $  - Segno
 &  - Coda
Tempo markers -  = BPM(8/16=s8/s16), where s8 = swing 8ths, s16 = swing 16ths
Добавлено: 09.09.2015
Другие материалы по этой песне:

Страница создана 14.07.2013
http://primanota.ru/ventures/orange-fire-chords.htm
Привет, Гость.
Предлагаем пройти революционный курс по гитаре.
Подарок от PrimaNota.Ru, забирай!