PrimaNota.ru - самый крупный в мире бесплатный архив песенных текстов, аккордов, табулатур и нот


Ventures - New Orleans - бас-таба, видео

Регистрация Запомнить меня
Войти через:  Facebook Google Twitter Vk Yandex Mail.ru

Ventures - New Orleans - бас-таба, видео

Печатать
Просмотров: 92
Ventures_New Orleans

Basstab by Jan Bjorklund, Finland
 jani_bjorklund@yahoo.se>
You are welcome to request for basstabs!
Fingering and positions as suggested by TablEdit,
please use common sense!

TablEdited by Jan Bjorklund
Tuning : E A D G 	Time Signature: 4/4

 |       |       |       |        |       |       |   
   |        
|--------------------------------|--------------------------------|
|------------------------0---1---|2-------2---2-----------0---1---|
|--------------------2-----------|----------------2---------------|
|--------------------------------|--------------------------------|

 |       |       |       |        |       |       |   
   |        
|--------------------------------|--------------------------------|
|2-------2---------------0---1---|2-------2---2-----------0---1---|
|------------2-------2-----------|----------------2---------------|
|--------------------------------|--------------------------------|

 |       |       |       |        |       |       |   
   |        
|--------------------------------|--------------------------------|
|2-------2---------------0---1---|2-------2---2-----------0---1---|
|------------2-------2-----------|----------------2---------------|
|--------------------------------|--------------------------------|

 |       |       |       |        |       |       |   
   |        
|------------------------0---1---|2-------2---2-----------0---2---|
|2-------2-----------2-----------|----------------2---------------|
|------------2-------------------|--------------------------------|
|--------------------------------|--------------------------------|

 |       |       |       |        |       |       |   
   |        
|2-------2---------------0---1---|2-------2---2-----------0---2---|
|------------2-------2-----------|----------------2---------------|
|--------------------------------|--------------------------------|
|--------------------------------|--------------------------------|

 |       |       |       |        |       |       |   
   |        
|2-------2-----------------------|--------------------------------|
|------------2-----------0---1---|2-------2---2-----------0---1---|
|--------------------2-----------|----------------2---------------|
|--------------------------------|--------------------------------|

 |       |       |       |        |       |       |   
   |        
|--------------------------------|--------------------------------|
|2-------2---------------0---1---|2-------2---2-----------0---1---|
|------------2-------2-----------|----------------2---------------|
|--------------------------------|--------------------------------|

 |       |       |       |        |       |       |   
   |        
|--------------------------------|4-----------------------4-------|
|2-------2-----------------------|--------------------------------|
|------------2-------------------|--------------------------------|
|--------------------------------|--------------------------------|

 |       |       |       |        |       |       |   
   |        
|2-----------------------2-------|--------------------------------|
|--------------------------------|2-------------------------------|
|--------------------------------|--------------------------------|
|--------------------------------|--------------------------------|

 |       |       |       |        |       |       |   
   |        
|--------------------------------|--------------------------------|
|--------------------------------|--------------------------------|
|--------------------------------|--------------------------------|
|--------------------------------|--------------------------------|

 |       |       |       |        |       |       |   
   |        
|--------------------------------|--------------------------------|
|------------------------0-------|2---------------0---------------|
|--------------------------------|------------------------2-------|
|--------------------------------|--------------------------------|

 |       |       |       |        |       |       |   
   |        
|--------------------------------|--------------------------------|
|0---------------2---------------|--------------------------------|
|--------------------------------|--------------------------------|
|--------------------------------|--------------------------------|

 |       |       |       |        |       |       |   
   |        
|------------------------4-------|4---------------4---------------|
|--------------------------------|--------------------------------|
|--------------------------------|--------------------------------|
|--------------------------------|--------------------------------|

 |       |       |       |        |       |       |   
   |        
|4-----------4-------0-----------|--------------------------------|
|------------------------2-------|--------------------------------|
|--------------------------------|--------------------------------|
|--------------------------------|--------------------------------|

 |       |       |       |        |       |       |   
   |        
|--------------------------------|--------------------------------|
|------------------------0---1---|2-------2---2-----------0---1---|
|--------------------2-----------|----------------2---------------|
|--------------------------------|--------------------------------|

 |       |       |       |        |       |       |   
   |        
|--------------------------------|--------------------------------|
|2-------2---------------0---1---|2-------2---2-----------0---1---|
|------------2-------2-----------|----------------2---------------|
|--------------------------------|--------------------------------|

 |       |       |       |        |       |       |   
   |        
|--------------------------------|--------------------------------|
|2-------2---------------0---1---|2-------2---2-----------0---1---|
|------------2-------2-----------|----------------2---------------|
|--------------------------------|--------------------------------|

 |       |       |       |        |       |       |   
   |        
|------------------------0---1---|2-------2---2-----------0---2---|
|2-------2-----------2-----------|----------------2---------------|
|------------2-------------------|--------------------------------|
|--------------------------------|--------------------------------|

 |       |       |       |        |       |       |   
   |        
|2-------2---------------0---1---|2-------2---2-----------0---2---|
|------------2-------2-----------|----------------2---------------|
|--------------------------------|--------------------------------|
|--------------------------------|--------------------------------|

 |       |       |       |        |       |       |   
   |        
|2-------2-----------------------|--------------------------------|
|------------2-----------0---1---|2-------2---2-----------0---1---|
|--------------------2-----------|----------------2---------------|
|--------------------------------|--------------------------------|

 |       |       |       |        |       |       |   
   |        
|--------------------------------|--------------------------------|
|2-------2---------------0---1---|2-------2---2-----------0---1---|
|------------2-------2-----------|----------------2---------------|
|--------------------------------|--------------------------------|

 |       |       |       |        |       |       |   
   |        
|--------------------------------|4-----------------------4-------|
|2-------2-----------------------|--------------------------------|
|------------2-------------------|--------------------------------|
|--------------------------------|--------------------------------|

 |       |       |       |        |       |       |   
   |        
|2-----------------------2-------|--------------------------------|
|--------------------------------|2-------------------------------|
|--------------------------------|--------------------------------|
|--------------------------------|--------------------------------|

 |       |       |       |        |       |       |   
   |        
|--------------------------------|--------------------------------|
|--------------------------------|--------------------------------|
|--------------------------------|--------------------------------|
|--------------------------------|--------------------------------|

 |       |       |       |        |       |       |   
   |        
|--------------------------------|--------------------------------|
|------------------------0-------|2---------------0---------------|
|--------------------------------|------------------------2-------|
|--------------------------------|--------------------------------|

 |       |       |       |        |       |       |   
   |        
|--------------------------------|--------------------------------|
|0---------------2---------------|--------------------------------|
|--------------------------------|--------------------------------|
|--------------------------------|--------------------------------|

 |       |       |       |        |       |       |   
   |        
|------------------------4-------|4---------------4---------------|
|--------------------------------|--------------------------------|
|--------------------------------|--------------------------------|
|--------------------------------|--------------------------------|

 |       |       |       |        |       |       |   
   |        
|4-----------4-------0-----------|--------------------------------|
|------------------------2-------|--------------------------------|
|--------------------------------|--------------------------------|
|--------------------------------|--------------------------------|

 |       |       |       |        |       |       |   
   |        
|--------------------------------|--------------------------------|
|------------------------0---1---|2-------2---2-----------0---1---|
|--------------------2-----------|----------------2---------------|
|--------------------------------|--------------------------------|

 |       |       |       |        |       |       |   
   |        
|--------------------------------|--------------------------------|
|2-------2---------------0---1---|2-------2---2-----------0---1---|
|------------2-------2-----------|----------------2---------------|
|--------------------------------|--------------------------------|

 |       |       |       |        |       |       |   
   |        
|--------------------------------|--------------------------------|
|2-------2---------------0---1---|2-------2---2-----------0---1---|
|------------2-------2-----------|----------------2---------------|
|--------------------------------|--------------------------------|

 |       |       |       |        |       |       |   
   |        
|------------------------0---1---|2-------2---2-----------0---2---|
|2-------2-----------2-----------|----------------2---------------|
|------------2-------------------|--------------------------------|
|--------------------------------|--------------------------------|

 |       |       |       |        |       |       |   
   |        
|2-------2---------------0---1---|2-------2---2-----------0---2---|
|------------2-------2-----------|----------------2---------------|
|--------------------------------|--------------------------------|
|--------------------------------|--------------------------------|

 |       |       |       |        |       |       |   
   |        
|2-------2-----------------------|--------------------------------|
|------------2-----------0---1---|2-------2---2-----------0---1---|
|--------------------2-----------|----------------2---------------|
|--------------------------------|--------------------------------|

 |       |       |       |        |       |       |   
   |        
|--------------------------------|--------------------------------|
|2-------2---------------0---1---|2-------2---2-----------0---1---|
|------------2-------2-----------|----------------2---------------|
|--------------------------------|--------------------------------|

 |       |       |       |        |       |       |   
   |        
|--------------------------------|4-----------------------4-------|
|2-------2-----------------------|--------------------------------|
|------------2-------------------|--------------------------------|
|--------------------------------|--------------------------------|

 |       |       |       |        |       |       |   
   |        
|2-----------------------2-------|--------------------------------|
|--------------------------------|2-------------------------------|
|--------------------------------|--------------------------------|
|--------------------------------|--------------------------------|

 |       |       |       |        |       |       |   
   |        
|--------------------------------|--------------------------------|
|--------------------------------|--------------------------------|
|--------------------------------|--------------------------------|
|--------------------------------|--------------------------------|

 |       |       |       |        |       |       |   
   |        
|--------------------------------|--------------------------------|
|------------------------0-------|2---------------0---------------|
|--------------------------------|------------------------2-------|
|--------------------------------|--------------------------------|

 |       |       |       |        |       |       |   
   |        
|--------------------------------|--------------------------------|
|0---------------2---------------|--------------------------------|
|--------------------------------|--------------------------------|
|--------------------------------|--------------------------------|

 |       |       |       |        |       |       |   
   |        
|------------------------4-------|4---------------4---------------|
|--------------------------------|--------------------------------|
|--------------------------------|--------------------------------|
|--------------------------------|--------------------------------|

 |       |       |       |        |       |       |   
   |        
|4-----------4-------0-----------|--------------------------------|
|------------------------2-------|--------------------------------|
|--------------------------------|--------------------------------|
|--------------------------------|--------------------------------|

 |       |       |       |        |       |       |   
   |        
|--------------------------------|--------------------------------|
|------------------------0---1---|2-------2---2-----------0---1---|
|--------------------2-----------|----------------2---------------|
|--------------------------------|--------------------------------|

 |       |       |       |        |       |       |   
   |        
|--------------------------------|--------------------------------|
|2-------2---------------0---1---|2-------2---2-----------0---1---|
|------------2-------2-----------|----------------2---------------|
|--------------------------------|--------------------------------|

 |       |       |       |        |       |       |   
   |        
|--------------------------------|--------------------------------|
|2-------2---------------0---1---|2-------2---2-----------0---1---|
|------------2-------2-----------|----------------2---------------|
|--------------------------------|--------------------------------|

 |       |       |       |               
|--------------------------------|
|2-------------------------------|
|--------------------------------|
|--------------------------------|


Created with TablEdit http://www.tabledit.com/


     
Добавлено: 29.10.2013
Другие материалы по этой песне:
  • Аккорды и текст

Страница создана 06.10.2013
http://primanota.ru/ventures/new-orleans-chords.htm
Привет, Гость.
Предлагаем пройти революционный курс по гитаре.
Подарок от PrimaNota.Ru, забирай!