PrimaNota.ru - самый крупный в мире бесплатный архив песенных текстов, аккордов, табулатур и нот


Ventures - More - таба, бас-таба, видео

Регистрация Запомнить меня
Войти через:  Facebook Google Twitter Vk Yandex Mail.ru

Ventures - More - таба, бас-таба, видео

Печатать
Просмотров: 86
MORE

As recorded by The Ventures
(From the 1963 Album LET'S GO)

Music by Nino Oliviero & Riz Ortolani
Arranged by The Ventures

Transcribed by Slowhand


Gtr I (E A D G B E) - 'Nokie Edwards - Electric Guitar'
Gtr II (E A D G B E) - 'Nokie Edwards - Organ'
Gtr III (E A D G B E) - 'Don Wilson - Electric Guitar'


  Q=150
  N.C.       G           F
 4/4
  Gtr I (El. Gtr.)
  W          E S S E S S E S S E S S
|----------|-3-3-3-3-3-3-1-1-1-1-1-1-|
|----------|-3-3-3-3-3-3-1-1-1-1-1-1-|
|----------|-4-4-4-4-4-4-2-2-2-2-2-2-|
|----------|-5-5-5-5-5-5-3-3-3-3-3-3-|
|----------|-------------------------|
|----------|-------------------------|
|
| Gtr III (El. Gtr.)
| W          H           H
|----------|-3-----------1-----------|
|----------|-3-----------1-----------|
|----------|-4-----------2-----------|
|----------|-5-----------3-----------|
|----------|-------------------------|
|----------|-------------------------|


                Bb    C       G           F
   E  S S E S S E S S E S S   E S S E S S E S S E S S
|--1--1-1-1-1-1-------------|-3-3-3-3-3-3-1-1-1-1-1-1-|
|--1--1-1-1-1-1-3-3-3-5-5-5-|-3-3-3-3-3-3-1-1-1-1-1-1-|
|--2--2-2-2-2-2-3-3-3-5-5-5-|-4-4-4-4-4-4-2-2-2-2-2-2-|
|--3--3-3-3-3-3-3-3-3-5-5-5-|-5-5-5-5-5-5-3-3-3-3-3-3-|
|---------------1-1-1-3-3-3-|-------------------------|
|---------------------------|-------------------------|
|
| +H            Q     Q       H           H
|-(1)-----------------------|-3-----------1-----------|
|-(1)-----------3-----5-----|-3-----------1-----------|
|-(2)-----------3-----5-----|-4-----------2-----------|
|-(3)-----------3-----5-----|-5-----------3-----------|
|---------------1-----3-----|-------------------------|
|---------------------------|-------------------------|


                Bb    C
   E  S S E S S E S S E S S
|--1--1-1-1-1-1--------------|
|--1--1-1-1-1-1-3-3-3-5-5-5--|
|--2--2-2-2-2-2-3-3-3-5-5-5--|
|--3--3-3-3-3-3-3-3-3-5-5-5--|
|---------------1-1-1-3-3-3--|
|----------------------------|
|
| +H            Q     Q
|-(1)------------------------|
|-(1)-----------3-----5------|
|-(2)-----------3-----5------|
|-(3)-----------3-----5------|
|---------------1-----3------|
|----------------------------|


  G
   E  S S E S S E S S  S S  E
|--3--3-3-3-3-3-3-3-3--3-3--3-|
|--3--3-3-3-3-3-3-3-3--3-3--3-|
|--4--4-4-4-4-4-4-4-4--4-4--4-|
|--5--5-5-5-5-5-5-5-5--5-5--5-|
|-----------------------------|
|-----------------------------|
|
| Gtr II (Organ arr. for Gtr.)
|  H.                  E    E
|--------------------------14-|
|-15------------------17------|
|-----------------------------|
|-----------------------------|
|-----------------------------|
|-----------------------------|
|
| Gtr III
|  W
|--3--------------------------|
|--3--------------------------|
|--4--------------------------|
|--5--------------------------|
|-----------------------------|
|-----------------------------|


  Em                            Am
   E S S  E S S  E S S  S S E    E  S S E S S E S S  S S E
|--0-0-0--0-0-0--0-0-0--0-0-0-|--0--0-0-0-0-0-0-0-0--0-0-0--|
|--0-0-0--0-0-0--0-0-0--0-0-0-|--1--1-1-1-1-1-1-1-1--1-1-1--|
|--0-0-0--0-0-0--0-0-0--0-0-0-|--2--2-2-2-2-2-2-2-2--2-2-2--|
|--2-2-2--2-2-2--2-2-2--2-2-2-|--2--2-2-2-2-2-2-2-2--2-2-2--|
|-----------------------------|-----------------------------|
|-----------------------------|-----------------------------|
|
|  Q      Q      Q      Q        H.                  Q
|-15-----14-----15-----19-----|---------------------19------|
|-----------------------------|-----------------------------|
|-----------------------------|-17--------------------------|
|-----------------------------|-----------------------------|
|-----------------------------|-----------------------------|
|-----------------------------|-----------------------------|
|
|  W                             W
|--0--------------------------|--0--------------------------|
|--0--------------------------|--1--------------------------|
|--0--------------------------|--2--------------------------|
|--2--------------------------|--2--------------------------|
|-----------------------------|-----------------------------|
|-----------------------------|-----------------------------|


  D                          G
   E S S E S S E S S S S E    E  S S E S S E S S  S S  E
|--2-2-2-2-2-2-2-2-2-2-2-2-|--3--3-3-3-3-3-3-3-3--3-3--3-|
|--3-3-3-3-3-3-3-3-3-3-3-3-|--3--3-3-3-3-3-3-3-3--3-3--3-|
|--2-2-2-2-2-2-2-2-2-2-2-2-|--4--4-4-4-4-4-4-4-4--4-4--4-|
|--0-0-0-0-0-0-0-0-0-0-0-0-|--5--5-5-5-5-5-5-5-5--5-5--5-|
|--------------------------|-----------------------------|
|--------------------------|-----------------------------|
|
|  W                          H.                  E    E
|-17-----------------------|-----------------------------|
|--------------------------|--------------------------15-|
|--------------------------|-16------------------17------|
|--------------------------|-----------------------------|
|--------------------------|-----------------------------|
|--------------------------|-----------------------------|
|
|  W                          W
|--2-----------------------|--3--------------------------|
|--3-----------------------|--3--------------------------|
|--2-----------------------|--4--------------------------|
|--0-----------------------|--5--------------------------|
|--------------------------|-----------------------------|
|--------------------------|-----------------------------|


  Em
   E S S  E S S  E S S  S S E
|--0-0-0--0-0-0--0-0-0--0-0-0--|
|--0-0-0--0-0-0--0-0-0--0-0-0--|
|--0-0-0--0-0-0--0-0-0--0-0-0--|
|--2-2-2--2-2-2--2-2-2--2-2-2--|
|------------------------------|
|------------------------------|
|
|  Q      Q      Q      Q
|----------------------15------|
|-17-----15-----17-------------|
|------------------------------|
|------------------------------|
|------------------------------|
|------------------------------|
|
|  W
|--0---------------------------|
|--0---------------------------|
|--0---------------------------|
|--2---------------------------|
|------------------------------|
|------------------------------|


  Am                           D
   E  S S E S S E S S  S S E    E S S E S S E S S S S E
|--0--0-0-0-0-0-0-0-0--0-0-0-|--2-2-2-2-2-2-2-2-2-2-2-2-|
|--1--1-1-1-1-1-1-1-1--1-1-1-|--3-3-3-3-3-3-3-3-3-3-3-3-|
|--2--2-2-2-2-2-2-2-2--2-2-2-|--2-2-2-2-2-2-2-2-2-2-2-2-|
|--2--2-2-2-2-2-2-2-2--2-2-2-|--0-0-0-0-0-0-0-0-0-0-0-0-|
|----------------------------|--------------------------|
|----------------------------|--------------------------|
|
|  H.                  Q        W
|---------------------15-----|-14-----------------------|
|----------------------------|--------------------------|
|-14-------------------------|--------------------------|
|----------------------------|--------------------------|
|----------------------------|--------------------------|
|----------------------------|--------------------------|
|
|  W                            W
|--0-------------------------|--2-----------------------|
|--1-------------------------|--3-----------------------|
|--2-------------------------|--2-----------------------|
|--2-------------------------|--0-----------------------|
|----------------------------|--------------------------|
|----------------------------|--------------------------|


  G
   E  S S E S S E S S  S S  E
|--3--3-3-3-3-3-3-3-3--3-3--3--|
|--3--3-3-3-3-3-3-3-3--3-3--3--|
|--4--4-4-4-4-4-4-4-4--4-4--4--|
|--5--5-5-5-5-5-5-5-5--5-5--5--|
|------------------------------|
|------------------------------|
|
|  H.                  E    E
|------------------------------|
|-15------------------17---19--|
|------------------------------|
|------------------------------|
|------------------------------|
|------------------------------|
|
|  W
|--3---------------------------|
|--3---------------------------|
|--4---------------------------|
|--5---------------------------|
|------------------------------|
|------------------------------|


  Em
   E S S  E S S  E S S  S S E
|--0-0-0--0-0-0--0-0-0--0-0-0-|
|--0-0-0--0-0-0--0-0-0--0-0-0-|
|--0-0-0--0-0-0--0-0-0--0-0-0-|
|--2-2-2--2-2-2--2-2-2--2-2-2-|
|-----------------------------|
|-----------------------------|
|
|  Q      Q      Q      Q
|----------------------19-----|
|-20-----19-----20------------|
|-----------------------------|
|-----------------------------|
|-----------------------------|
|-----------------------------|
|
|  W
|--0--------------------------|
|--0--------------------------|
|--0--------------------------|
|--2--------------------------|
|-----------------------------|
|-----------------------------|


  Am                           D
   E  S S E S S E S S  S S E    E S S E S S E S S S S E
|--0--0-0-0-0-0-0-0-0--0-0-0-|--2-2-2-2-2-2-2-2-2-2-2-2--|
|--1--1-1-1-1-1-1-1-1--1-1-1-|--3-3-3-3-3-3-3-3-3-3-3-3--|
|--2--2-2-2-2-2-2-2-2--2-2-2-|--2-2-2-2-2-2-2-2-2-2-2-2--|
|--2--2-2-2-2-2-2-2-2--2-2-2-|--0-0-0-0-0-0-0-0-0-0-0-0--|
|----------------------------|---------------------------|
|----------------------------|---------------------------|
|
|  H.                  Q        W
|---------------------19-----|-17------------------------|
|----------------------------|---------------------------|
|-17-------------------------|---------------------------|
|----------------------------|---------------------------|
|----------------------------|---------------------------|
|----------------------------|---------------------------|
|
|  W                            W
|--0-------------------------|--2------------------------|
|--1-------------------------|--3------------------------|
|--2-------------------------|--2------------------------|
|--2-------------------------|--0------------------------|
|----------------------------|---------------------------|
|----------------------------|---------------------------|


  G
   E  S S E S S E S S  S S  E
|--3--3-3-3-3-3-3-3-3--3-3--3-|
|--3--3-3-3-3-3-3-3-3--3-3--3-|
|--4--4-4-4-4-4-4-4-4--4-4--4-|
|--5--5-5-5-5-5-5-5-5--5-5--5-|
|-----------------------------|
|-----------------------------|
|
|  H.                  E    E
|-----------------------------|
|--------------------------15-|
|-16------------------17------|
|-----------------------------|
|-----------------------------|
|-----------------------------|
|
|  W
|--3--------------------------|
|--3--------------------------|
|--4--------------------------|
|--5--------------------------|
|-----------------------------|
|-----------------------------|


  Em                            Am
   E S S  E S S  E S S  S S E    E  S S E S S E S S  S S E
|--0-0-0--0-0-0--0-0-0--0-0-0-|--0--0-0-0-0-0-0-0-0--0-0-0--|
|--0-0-0--0-0-0--0-0-0--0-0-0-|--1--1-1-1-1-1-1-1-1--1-1-1--|
|--0-0-0--0-0-0--0-0-0--0-0-0-|--2--2-2-2-2-2-2-2-2--2-2-2--|
|--2-2-2--2-2-2--2-2-2--2-2-2-|--2--2-2-2-2-2-2-2-2--2-2-2--|
|-----------------------------|-----------------------------|
|-----------------------------|-----------------------------|
|
|  Q      Q      Q      Q        H.                  Q
|----------------------15-----|---------------------15------|
|-17-----15-----17------------|-----------------------------|
|-----------------------------|-14--------------------------|
|-----------------------------|-----------------------------|
|-----------------------------|-----------------------------|
|-----------------------------|-----------------------------|
|
|  W                             W
|--0--------------------------|--0--------------------------|
|--0--------------------------|--1--------------------------|
|--0--------------------------|--2--------------------------|
|--2--------------------------|--2--------------------------|
|-----------------------------|-----------------------------|
|-----------------------------|-----------------------------|


  D            B             G
   E S S E S S E S S S S E    E  S S E S S E S S  S S  E
|--2-2-2-2-2-2-2-2-2-2-2-2-|--3--3-3-3-3-3-3-3-3--3-3--3-|
|--3-3-3-3-3-3-4-4-4-4-4-4-|--3--3-3-3-3-3-3-3-3--3-3--3-|
|--2-2-2-2-2-2-4-4-4-4-4-4-|--4--4-4-4-4-4-4-4-4--4-4--4-|
|--0-0-0-0-0-0-4-4-4-4-4-4-|--5--5-5-5-5-5-5-5-5--5-5--5-|
|--------------2-2-2-2-2-2-|-----------------------------|
|--------------------------|-----------------------------|
|
|  W                          H.                  E    E
|-14-----------------------|-15------------------14---15-|
|--------------------------|-----------------------------|
|--------------------------|-----------------------------|
|--------------------------|-----------------------------|
|--------------------------|-----------------------------|
|--------------------------|-----------------------------|
|
|  H           H              W
|--2-----------2-----------|--3--------------------------|
|--3-----------4-----------|--3--------------------------|
|--2-----------4-----------|--4--------------------------|
|--0-----------4-----------|--5--------------------------|
|--------------2-----------|-----------------------------|
|--------------------------|-----------------------------|


  Am
   E  S S E  S S   E  S S  S S E
|--0--0-0-0--0-0---0--0-0--0-0-0--|
|--1--1-1-1--1-1---1--1-1--1-1-1--|
|--2--2-2-2--2-2---2--2-2--2-2-2--|
|--2--2-2-2--2-2---2--2-2--2-2-2--|
|---------------------------------|
|---------------------------------|
|
|  Q.        E    +Q       Q
|-17--------15---(15)-----14------|
|---------------------------------|
|---------------------------------|
|---------------------------------|
|---------------------------------|
|---------------------------------|
|
|  W
|--0------------------------------|
|--1------------------------------|
|--2------------------------------|
|--2------------------------------|
|---------------------------------|
|---------------------------------|


  G
   E  S S E S S E S S  S S  E
|--3--3-3-3-3-3-3-3-3--3-3--3-|
|--3--3-3-3-3-3-3-3-3--3-3--3-|
|--4--4-4-4-4-4-4-4-4--4-4--4-|
|--5--5-5-5-5-5-5-5-5--5-5--5-|
|-----------------------------|
|-----------------------------|
|
|  H.                  E    E
|-15------------------14---15-|
|-----------------------------|
|-----------------------------|
|-----------------------------|
|-----------------------------|
|-----------------------------|
|
|  W
|--3--------------------------|
|--3--------------------------|
|--4--------------------------|
|--5--------------------------|
|-----------------------------|
|-----------------------------|


  Am                               G
   E  S S E  S S   E  S S  S S E    E  S S E S S E S S  S S  E
|--0--0-0-0--0-0---0--0-0--0-0-0-|--3--3-3-3-3-3-3-3-3--3-3--3--|
|--1--1-1-1--1-1---1--1-1--1-1-1-|--3--3-3-3-3-3-3-3-3--3-3--3--|
|--2--2-2-2--2-2---2--2-2--2-2-2-|--4--4-4-4-4-4-4-4-4--4-4--4--|
|--2--2-2-2--2-2---2--2-2--2-2-2-|--5--5-5-5-5-5-5-5-5--5-5--5--|
|--------------------------------|------------------------------|
|--------------------------------|------------------------------|
|
|  Q.        E    +Q       Q        H.                  E    E
|-17--------15---(15)-----14-----|-15------------------14---15--|
|--------------------------------|------------------------------|
|--------------------------------|------------------------------|
|--------------------------------|------------------------------|
|--------------------------------|------------------------------|
|--------------------------------|------------------------------|
|
|  W                                W
|--0-----------------------------|--3---------------------------|
|--1-----------------------------|--3---------------------------|
|--2-----------------------------|--4---------------------------|
|--2-----------------------------|--5---------------------------|
|--------------------------------|------------------------------|
|--------------------------------|------------------------------|


  Em
   E  S S E  S S  E S S  S S E
|--0--0-0-0--0-0--0-0-0--0-0-0-|
|--0--0-0-0--0-0--0-0-0--0-0-0-|
|--0--0-0-0--0-0--0-0-0--0-0-0-|
|--2--2-2-2--2-2--2-2-2--2-2-2-|
|------------------------------|
|------------------------------|
|
|  Q.        E    Q      Q
|-24---------------------------|
|-----------24---22-----20-----|
|------------------------------|
|------------------------------|
|------------------------------|
|------------------------------|
|
|  W
|--0---------------------------|
|--0---------------------------|
|--0---------------------------|
|--2---------------------------|
|------------------------------|
|------------------------------|


  Am                             D
   E  S S E  S S  E S S  S S E    E S S  E S S  E S S  S S E
|--0--0-0-0--0-0--0-0-0--0-0-0-|--2-2-2--2-2-2--2-2-2--2-2-2--||
|--1--1-1-1--1-1--1-1-1--1-1-1-|--3-3-3--3-3-3--3-3-3--3-3-3--||
|--2--2-2-2--2-2--2-2-2--2-2-2-|--2-2-2--2-2-2--2-2-2--2-2-2--||
|--2--2-2-2--2-2--2-2-2--2-2-2-|--0-0-0--0-0-0--0-0-0--0-0-0--||
|------------------------------|------------------------------||
|------------------------------|------------------------------||
|
|  Q.        E    Q      Q        Q      Q      Q      Q
|-20--------19---17-----15-----|-17---------------------------||
|------------------------------|--------19-----17-----16------||
|------------------------------|------------------------------||
|------------------------------|------------------------------||
|------------------------------|------------------------------||
|------------------------------|------------------------------||
|
|  W                              W
|--0---------------------------|--2---------------------------||
|--1---------------------------|--3---------------------------||
|--2---------------------------|--2---------------------------||
|--2---------------------------|--0---------------------------||
|------------------------------|------------------------------||
|------------------------------|------------------------------||


  G
   E  S S E S S E S S  S S  E
|--3--3-3-3-3-3-3-3-3--3-3--3-|
|--3--3-3-3-3-3-3-3-3--3-3--3-|
|--4--4-4-4-4-4-4-4-4--4-4--4-|
|--5--5-5-5-5-5-5-5-5--5-5--5-|
|-----------------------------|
|-----------------------------|
|
|  H.                  E    E
|-----------------------------|
|-15------------------17---19-|
|-----------------------------|
|-----------------------------|
|-----------------------------|
|-----------------------------|
|
|  E  E   E E   H
|--3--------3-----------------|
|--3--------3-----------------|
|--4--------4-----------------|
|--5--------5-----------------|
|-----------------------------|
|-----------------------------|


  Em                            Am
   E S S  E S S  E S S  S S E    E  S S E S S E S S  S S E
|--0-0-0--0-0-0--0-0-0--0-0-0-|--0--0-0-0-0-0-0-0-0--0-0-0--|
|--0-0-0--0-0-0--0-0-0--0-0-0-|--1--1-1-1-1-1-1-1-1--1-1-1--|
|--0-0-0--0-0-0--0-0-0--0-0-0-|--2--2-2-2-2-2-2-2-2--2-2-2--|
|--2-2-2--2-2-2--2-2-2--2-2-2-|--2--2-2-2-2-2-2-2-2--2-2-2--|
|-----------------------------|-----------------------------|
|-----------------------------|-----------------------------|
|
|  Q      Q      Q      Q        H.                  Q
|----------------------19-----|---------------------19------|
|-20-----19-----20------------|-----------------------------|
|-----------------------------|-17--------------------------|
|-----------------------------|-----------------------------|
|-----------------------------|-----------------------------|
|-----------------------------|-----------------------------|
|
|  E E    E E    H               E  E   E E   H
|--0--------0-----------------|--0--------0-----------------|
|--0--------0-----------------|--1--------1-----------------|
|--0--------0-----------------|--2--------2-----------------|
|--2--------2-----------------|--2--------2-----------------|
|-----------------------------|-----------------------------|
|-----------------------------|-----------------------------|


  D                          G
   E S S E S S E S S S S E    E  S S E S S E S S  S S  E
|--2-2-2-2-2-2-2-2-2-2-2-2-|--3--3-3-3-3-3-3-3-3--3-3--3-|
|--3-3-3-3-3-3-3-3-3-3-3-3-|--3--3-3-3-3-3-3-3-3--3-3--3-|
|--2-2-2-2-2-2-2-2-2-2-2-2-|--4--4-4-4-4-4-4-4-4--4-4--4-|
|--0-0-0-0-0-0-0-0-0-0-0-0-|--5--5-5-5-5-5-5-5-5--5-5--5-|
|--------------------------|-----------------------------|
|--------------------------|-----------------------------|
|
|  W                          H.                  E    E
|-17-----------------------|-----------------------------|
|--------------------------|--------------------------15-|
|--------------------------|-16------------------17------|
|--------------------------|-----------------------------|
|--------------------------|-----------------------------|
|--------------------------|-----------------------------|
|
|  E E   E E   E S S S S E    E  E   E E   H
|--2-------2-----2-2-2-2-2-|--3--------3-----------------|
|--3-------3-----3-3-3-3-3-|--3--------3-----------------|
|--2-------2-----2-2-2-2-2-|--4--------4-----------------|
|--0-------0-----0-0-0-0-0-|--5--------5-----------------|
|--------------------------|-----------------------------|
|--------------------------|-----------------------------|


  Em
   E S S  E S S  E S S  S S E
|--0-0-0--0-0-0--0-0-0--0-0-0--|
|--0-0-0--0-0-0--0-0-0--0-0-0--|
|--0-0-0--0-0-0--0-0-0--0-0-0--|
|--2-2-2--2-2-2--2-2-2--2-2-2--|
|------------------------------|
|------------------------------|
|
|  Q      Q      Q      Q
|----------------------15------|
|-17-----15-----17-------------|
|------------------------------|
|------------------------------|
|------------------------------|
|------------------------------|
|
|  E E    E E    H
|--0--------0------------------|
|--0--------0------------------|
|--0--------0------------------|
|--2--------2------------------|
|------------------------------|
|------------------------------|


  Am                           D        B
   E  S S E S S E S S  S S E    E S S E S S E S S S S E
|--0--0-0-0-0-0-0-0-0--0-0-0-|--2-2-2-2-2-2-2-2-2-2-2-2-|
|--1--1-1-1-1-1-1-1-1--1-1-1-|--3-3-3-3-4-4-4-4-4-4-4-4-|
|--2--2-2-2-2-2-2-2-2--2-2-2-|--2-2-2-2-4-4-4-4-4-4-4-4-|
|--2--2-2-2-2-2-2-2-2--2-2-2-|--0-0-0-0-4-4-4-4-4-4-4-4-|
|----------------------------|----------2-2-2-2-2-2-2-2-|
|----------------------------|--------------------------|
|
|  H.                  Q        W
|---------------------15-----|-14-----------------------|
|----------------------------|--------------------------|
|-14-------------------------|--------------------------|
|----------------------------|--------------------------|
|----------------------------|--------------------------|
|----------------------------|--------------------------|
|
|  E  E   E E   H               E E   E E   E S S S S E
|--0--------0----------------|--2-------2-----2-2-2-2-2-|
|--1--------1----------------|--3-------4-----4-4-4-4-4-|
|--2--------2----------------|--2-------4-----4-4-4-4-4-|
|--2--------2----------------|--0-------4-----4-4-4-4-4-|
|----------------------------|----------2-----2-2-2-2-2-|
|----------------------------|--------------------------|


  G
   E  S S E S S E S S  S S  E
|--3--3-3-3-3-3-3-3-3--3-3--3--|
|--3--3-3-3-3-3-3-3-3--3-3--3--|
|--4--4-4-4-4-4-4-4-4--4-4--4--|
|--5--5-5-5-5-5-5-5-5--5-5--5--|
|------------------------------|
|------------------------------|
|
|  H.                  E    E
|-15------------------14---15--|
|------------------------------|
|------------------------------|
|------------------------------|
|------------------------------|
|------------------------------|
|
|  W
|--3---------------------------|
|--3---------------------------|
|--4---------------------------|
|--5---------------------------|
|------------------------------|
|------------------------------|


  Am                               G
   E  S S E  S S   E  S S  S S E    E  S S E S S E S S  S S  E
|--0--0-0-0--0-0---0--0-0--0-0-0-|--3--3-3-3-3-3-3-3-3--3-3--3-|
|--1--1-1-1--1-1---1--1-1--1-1-1-|--3--3-3-3-3-3-3-3-3--3-3--3-|
|--2--2-2-2--2-2---2--2-2--2-2-2-|--4--4-4-4-4-4-4-4-4--4-4--4-|
|--2--2-2-2--2-2---2--2-2--2-2-2-|--5--5-5-5-5-5-5-5-5--5-5--5-|
|--------------------------------|-----------------------------|
|--------------------------------|-----------------------------|
|
|  Q.        E    +Q       Q        H.                  E    E
|-17--------15---(15)-----14-----|-15------------------14---15-|
|--------------------------------|-----------------------------|
|--------------------------------|-----------------------------|
|--------------------------------|-----------------------------|
|--------------------------------|-----------------------------|
|--------------------------------|-----------------------------|
|
|  W                                W
|--0-----------------------------|--3--------------------------|
|--1-----------------------------|--3--------------------------|
|--2-----------------------------|--4--------------------------|
|--2-----------------------------|--5--------------------------|
|--------------------------------|-----------------------------|
|--------------------------------|-----------------------------|


  Am
   E  S S E  S S   E  S S  S S E
|--0--0-0-0--0-0---0--0-0--0-0-0--|
|--1--1-1-1--1-1---1--1-1--1-1-1--|
|--2--2-2-2--2-2---2--2-2--2-2-2--|
|--2--2-2-2--2-2---2--2-2--2-2-2--|
|---------------------------------|
|---------------------------------|
|
|  Q.        E    +Q       Q
|-17--------15---(15)-----14------|
|---------------------------------|
|---------------------------------|
|---------------------------------|
|---------------------------------|
|---------------------------------|
|
|  W
|--0------------------------------|
|--1------------------------------|
|--2------------------------------|
|--2------------------------------|
|---------------------------------|
|---------------------------------|


  G
   E  S S E S S E S S  S S  E
|--3--3-3-3-3-3-3-3-3--3-3--3-|
|--3--3-3-3-3-3-3-3-3--3-3--3-|
|--4--4-4-4-4-4-4-4-4--4-4--4-|
|--5--5-5-5-5-5-5-5-5--5-5--5-|
|-----------------------------|
|-----------------------------|
|
|  H.                  E    E
|-15------------------14---15-|
|-----------------------------|
|-----------------------------|
|-----------------------------|
|-----------------------------|
|-----------------------------|
|
|  W
|--3--------------------------|
|--3--------------------------|
|--4--------------------------|
|--5--------------------------|
|-----------------------------|
|-----------------------------|


  Am                               G
   E  S S E  S S   E  S S  S S E    E S S E S S E S S S S E
|--0--0-0-0--0-0---0--0-0--0-0-0-|--3-3-3-3-3-3-3-3-3-3-3-3--|
|--1--1-1-1--1-1---1--1-1--1-1-1-|--3-3-3-3-3-3-3-3-3-3-3-3--|
|--2--2-2-2--2-2---2--2-2--2-2-2-|--4-4-4-4-4-4-4-4-4-4-4-4--|
|--2--2-2-2--2-2---2--2-2--2-2-2-|--5-5-5-5-5-5-5-5-5-5-5-5--|
|--------------------------------|---------------------------|
|--------------------------------|---------------------------|
|
|  Q.        E    +Q       Q        W
|-17--------15---(15)-----14-----|-15------------------------|
|--------------------------------|---------------------------|
|--------------------------------|---------------------------|
|--------------------------------|---------------------------|
|--------------------------------|---------------------------|
|--------------------------------|---------------------------|
|
|  W                                W
|--0-----------------------------|--3------------------------|
|--1-----------------------------|--3------------------------|
|--2-----------------------------|--4------------------------|
|--2-----------------------------|--5------------------------|
|--------------------------------|---------------------------|
|--------------------------------|---------------------------|


  Eb
    E  S S E S S E S S S S E
|----------------------------||
|---8--8-8-8-8-8-8-8-8-8-8-8-||
|---8--8-8-8-8-8-8-8-8-8-8-8-||
|---8--8-8-8-8-8-8-8-8-8-8-8-||
|---6--6-6-6-6-6-6-6-6-6-6-6-||
|----------------------------||
|
|  +W
|-(15)-----------------------||
|----------------------------||
|----------------------------||
|----------------------------||
|----------------------------||
|----------------------------||
|
|   W
|---3------------------------||
|---4------------------------||
|---3------------------------||
|---5------------------------||
|---6------------------------||
|----------------------------||


  Ab                          Fm
   E  S S E S S E S S S S E    E S S E S S E S S S S E
|--4--4-4-4-4-4-4-4-4-4-4-4-|--1-1-1-1-1-1-1-1-1-1-1-1--|
|--4--4-4-4-4-4-4-4-4-4-4-4-|--1-1-1-1-1-1-1-1-1-1-1-1--|
|--5--5-5-5-5-5-5-5-5-5-5-5-|--1-1-1-1-1-1-1-1-1-1-1-1--|
|--6--6-6-6-6-6-6-6-6-6-6-6-|--3-3-3-3-3-3-3-3-3-3-3-3--|
|---------------------------|---------------------------|
|---------------------------|---------------------------|
|
|  W                           W
|---------------------------|---------------------------|
|-13------------------------|-13------------------------|
|---------------------------|---------------------------|
|---------------------------|---------------------------|
|---------------------------|---------------------------|
|---------------------------|---------------------------|
|
|  H.                 E   E    Q     Q     Q     Q
|---------------------------|--------------------8------|
|---------------------6---8-|--9-----8-----9------------|
|--8------------------------|---------------------------|
|---------------------------|---------------------------|
|---------------------------|---------------------------|
|---------------------------|---------------------------|


  Bbm/F
   E  S S E S S E S S S S E
|--1--1-1-1-1-1-1-1-1-1-1-1-|
|--2--2-2-2-2-2-2-2-2-2-2-2-|
|--3--3-3-3-3-3-3-3-3-3-3-3-|
|--3--3-3-3-3-3-3-3-3-3-3-3-|
|---------------------------|
|---------------------------|
|
|  W
|---------------------------|
|-11------------------------|
|---------------------------|
|---------------------------|
|---------------------------|
|---------------------------|
|
|  H.                 Q
|---------------------8-----|
|---------------------------|
|--6------------------------|
|---------------------------|
|---------------------------|
|---------------------------|


  Eb                         Ab
   E S S E S S E S S S S E   E  S S E S S E S S S S E
|--------------------------|-4--4-4-4-4-4-4-4-4-4-4-4-|
|--8-8-8-8-8-8-8-8-8-8-8-8-|-4--4-4-4-4-4-4-4-4-4-4-4-|
|--8-8-8-8-8-8-8-8-8-8-8-8-|-5--5-5-5-5-5-5-5-5-5-5-5-|
|--8-8-8-8-8-8-8-8-8-8-8-8-|-6--6-6-6-6-6-6-6-6-6-6-6-|
|--6-6-6-6-6-6-6-6-6-6-6-6-|--------------------------|
|--------------------------|--------------------------|
|
|  W                         W
|--------------------------|--------------------------|
|-11-----------------------|-9------------------------|
|--------------------------|--------------------------|
|--------------------------|--------------------------|
|--------------------------|--------------------------|
|--------------------------|--------------------------|
|
|  W                         H.                 E   E
|--6-----------------------|--------------------------|
|--------------------------|------------------------4-|
|--------------------------|-5------------------6-----|
|--------------------------|--------------------------|
|--------------------------|--------------------------|
|--------------------------|--------------------------|


  Fm                        Bbm/F
  E S S E S S E S S S S E   E  S S E S S E S S S S E
|-1-1-1-1-1-1-1-1-1-1-1-1-|-1--1-1-1-1-1-1-1-1-1-1-1-|
|-1-1-1-1-1-1-1-1-1-1-1-1-|-2--2-2-2-2-2-2-2-2-2-2-2-|
|-1-1-1-1-1-1-1-1-1-1-1-1-|-3--3-3-3-3-3-3-3-3-3-3-3-|
|-3-3-3-3-3-3-3-3-3-3-3-3-|-3--3-3-3-3-3-3-3-3-3-3-3-|
|-------------------------|--------------------------|
|-------------------------|--------------------------|
|
| W                         W
|-------------------------|-9------------------------|
|-9-----------------------|--------------------------|
|-------------------------|--------------------------|
|-------------------------|--------------------------|
|-------------------------|--------------------------|
|-------------------------|--------------------------|
|
| Q     Q     Q     Q       H.                 Q
|-------------------4-----|--------------------4-----|
|-6-----4-----6-----------|--------------------------|
|-------------------------|-3------------------------|
|-------------------------|--------------------------|
|-------------------------|--------------------------|
|-------------------------|--------------------------|


  Eb                    Cm
   E  S  S   E      S S  E   S  S   S   S   E
|----------------------------------------------|
|--8--8--8---8------8-8------------------------|
|--8--8--8---8------8-8--8---8--8---8---8---8--|
|--8--8--8---8------8-8-10--10-10--10--10--10--|
|--6--6--6---6------6-6-10--10-10--10--10--10--|
|------------------------8---8--8---8---8---8--|
|
|  E.    S  +S   E.      E.     S  +S   E.
|-15---------------------------13-(13)-15------|
|-------13-(13)-14------16---------------------|
|----------------------------------------------|
|----------------------------------------------|
|----------------------------------------------|
|----------------------------------------------|
|
|  W
|--3-------------------------------------------|
|----------------------------------------------|
|----------------------------------------------|
|----------------------------------------------|
|----------------------------------------------|
|----------------------------------------------|


  Ab
   E  S S E S S E S S  S S  E
|--4--4-4-4-4-4-4-4-4--4-4--4-|
|--4--4-4-4-4-4-4-4-4--4-4--4-|
|--5--5-5-5-5-5-5-5-5--5-5--5-|
|--6--6-6-6-6-6-6-6-6--6-6--6-|
|-----------------------------|
|-----------------------------|
|
|  H.                  E    E
|-16------------------15---16-|
|-----------------------------|
|-----------------------------|
|-----------------------------|
|-----------------------------|
|-----------------------------|
|
|  W
|--4--------------------------|
|--4--------------------------|
|--5--------------------------|
|--6--------------------------|
|-----------------------------|
|-----------------------------|


  Bbm/F                            Ab
   E  S S E  S S   E  S S  S S E    E  S S E S S E S S  S S  E
|--1--1-1-1--1-1---1--1-1--1-1-1-|--4--4-4-4-4-4-4-4-4--4-4--4-|
|--2--2-2-2--2-2---2--2-2--2-2-2-|--4--4-4-4-4-4-4-4-4--4-4--4-|
|--3--3-3-3--3-3---3--3-3--3-3-3-|--5--5-5-5-5-5-5-5-5--5-5--5-|
|--3--3-3-3--3-3---3--3-3--3-3-3-|--6--6-6-6-6-6-6-6-6--6-6--6-|
|--------------------------------|-----------------------------|
|--------------------------------|-----------------------------|
|
|  Q.        E    +Q       Q        H.                  E    E
|-18--------16---(16)-----15-----|-16------------------15---16-|
|--------------------------------|-----------------------------|
|--------------------------------|-----------------------------|
|--------------------------------|-----------------------------|
|--------------------------------|-----------------------------|
|--------------------------------|-----------------------------|
|
|  Q.        E    +Q       Q        W
|--------------------------------|--4--------------------------|
|--6---------6----(6)------6-----|--4--------------------------|
|--6---------6----(6)------6-----|--5--------------------------|
|--8---------8----(8)------8-----|--6--------------------------|
|--8---------8----(8)------8-----|-----------------------------|
|--------------------------------|-----------------------------|


  Bbm/F
   E  S S E  S S   E  S S  S S E
|--1--1-1-1--1-1---1--1-1--1-1-1-|
|--2--2-2-2--2-2---2--2-2--2-2-2-|
|--3--3-3-3--3-3---3--3-3--3-3-3-|
|--3--3-3-3--3-3---3--3-3--3-3-3-|
|--------------------------------|
|--------------------------------|
|
|  Q.        E    +Q       Q
|-18--------16---(16)-----15-----|
|--------------------------------|
|--------------------------------|
|--------------------------------|
|--------------------------------|
|--------------------------------|
|
|  Q.        E    +Q       Q
|--------------------------------|
|--6---------6----(6)------6-----|
|--6---------6----(6)------6-----|
|--8---------8----(8)------8-----|
|--8---------8----(8)------8-----|
|--------------------------------|


  Ab                            Bbm/F
   E  S S E S S E S S  S S  E    E  S S E  S S   E  S S  S S E
|--4--4-4-4-4-4-4-4-4--4-4--4-|--1--1-1-1--1-1---1--1-1--1-1-1-|
|--4--4-4-4-4-4-4-4-4--4-4--4-|--2--2-2-2--2-2---2--2-2--2-2-2-|
|--5--5-5-5-5-5-5-5-5--5-5--5-|--3--3-3-3--3-3---3--3-3--3-3-3-|
|--6--6-6-6-6-6-6-6-6--6-6--6-|--3--3-3-3--3-3---3--3-3--3-3-3-|
|-----------------------------|--------------------------------|
|-----------------------------|--------------------------------|
|
|  H.                  E    E    Q.        E    +Q       Q
|-16------------------15---16-|-18--------16---(16)-----15-----|
|-----------------------------|--------------------------------|
|-----------------------------|--------------------------------|
|-----------------------------|--------------------------------|
|-----------------------------|--------------------------------|
|-----------------------------|--------------------------------|
|
|  W                             Q.        E    +Q       Q
|--4--------------------------|--------------------------------|
|--4--------------------------|--6---------6----(6)------6-----|
|--5--------------------------|--6---------6----(6)------6-----|
|--6--------------------------|--8---------8----(8)------8-----|
|-----------------------------|--8---------8----(8)------8-----|
|-----------------------------|--------------------------------|


  Ab
   E S S E S S E S S E S S
|--4-4-4-4-4-4-4-4-4-4-4-4-|
|--4-4-4-4-4-4-4-4-4-4-4-4-|
|--5-5-5-5-5-5-5-5-5-5-5-5-|
|--6-6-6-6-6-6-6-6-6-6-6-6-|
|--------------------------|
|--------------------------|
|
|  W
|-16-----------------------|
|--------------------------|
|--------------------------|
|--------------------------|
|--------------------------|
|--------------------------|
|
|  E E   E E   H
|--4-------4---------------|
|--4-------4---------------|
|--5-------5---------------|
|--6-------6---------------|
|--------------------------|
|--------------------------|


  F#                             Ab
    E  S S E S S  E S S  E S S    E S S E S S E S S E S S
|---2--2-2-2-2-2--2-2-2--2-2-2-|--4-4-4-4-4-4-4-4-4-4-4-4-|
|---2--2-2-2-2-2--2-2-2--2-2-2-|--4-4-4-4-4-4-4-4-4-4-4-4-|
|---3--3-3-3-3-3--3-3-3--3-3-3-|--5-5-5-5-5-5-5-5-5-5-5-5-|
|---4--4-4-4-4-4--4-4-4--4-4-4-|--6-6-6-6-6-6-6-6-6-6-6-6-|
|------------------------------|--------------------------|
|------------------------------|--------------------------|
|
|  +H             Q      Q        W
|-(16)-----------18-----21-----|-20-----------------------|
|------------------------------|--------------------------|
|------------------------------|--------------------------|
|------------------------------|--------------------------|
|------------------------------|--------------------------|
|------------------------------|--------------------------|
|
|   E  E   E E    H               E E   E E   H
|---2--------2-----------------|--4-------4---------------|
|---2--------2-----------------|--4-------4---------------|
|---3--------3-----------------|--5-------5---------------|
|---4--------4-----------------|--6-------6---------------|
|------------------------------|--------------------------|
|------------------------------|--------------------------|


  F#
    E  S S E S S  E S S  E S S
|---2--2-2-2-2-2--2-2-2--2-2-2-|
|---2--2-2-2-2-2--2-2-2--2-2-2-|
|---3--3-3-3-3-3--3-3-3--3-3-3-|
|---4--4-4-4-4-4--4-4-4--4-4-4-|
|------------------------------|
|------------------------------|
|
|  +H             Q      Q
|-(20)-----------18-----21-----|
|------------------------------|
|------------------------------|
|------------------------------|
|------------------------------|
|------------------------------|
|
|   E  E   E E    H
|---2--------2-----------------|
|---2--------2-----------------|
|---3--------3-----------------|
|---4--------4-----------------|
|------------------------------|
|------------------------------|


  Ab                         F#
   E S S E S S E S S E S S     E  S S E S S  E S S  E S S
|--4-4-4-4-4-4-4-4-4-4-4-4-|---2--2-2-2-2-2--2-2-2--2-2-2-|
|--4-4-4-4-4-4-4-4-4-4-4-4-|---2--2-2-2-2-2--2-2-2--2-2-2-|
|--5-5-5-5-5-5-5-5-5-5-5-5-|---3--3-3-3-3-3--3-3-3--3-3-3-|
|--6-6-6-6-6-6-6-6-6-6-6-6-|---4--4-4-4-4-4--4-4-4--4-4-4-|
|--------------------------|------------------------------|
|--------------------------|------------------------------|
|
|  W                          +H             Q      Q
|-20-----------------------|-(20)-----------18-----21-----|
|--------------------------|------------------------------|
|--------------------------|------------------------------|
|--------------------------|------------------------------|
|--------------------------|------------------------------|
|--------------------------|------------------------------|
|
|  E E   E E   H               E  E   E E    H
|--4-------4---------------|---2--------2-----------------|
|--4-------4---------------|---2--------2-----------------|
|--5-------5---------------|---3--------3-----------------|
|--6-------6---------------|---4--------4-----------------|
|--------------------------|------------------------------|
|--------------------------|------------------------------|


  Ab                         F#
   E S S E S S E S S E S S     E  S S E S S  E S S  E S S
|--4-4-4-4-4-4-4-4-4-4-4-4-|---2--2-2-2-2-2--2-2-2--2-2-2-|
|--4-4-4-4-4-4-4-4-4-4-4-4-|---2--2-2-2-2-2--2-2-2--2-2-2-|
|--5-5-5-5-5-5-5-5-5-5-5-5-|---3--3-3-3-3-3--3-3-3--3-3-3-|
|--6-6-6-6-6-6-6-6-6-6-6-6-|---4--4-4-4-4-4--4-4-4--4-4-4-|
|--------------------------|------------------------------|
|--------------------------|------------------------------|
|
|  W                          +H             Q      Q
|-20-----------------------|-(20)-----------18-----21-----|
|--------------------------|------------------------------|
|--------------------------|------------------------------|
|--------------------------|------------------------------|
|--------------------------|------------------------------|
|--------------------------|------------------------------|
|
|  E E   E E   H               E  E   E E    H
|--4-------4---------------|---2--------2-----------------|
|--4-------4---------------|---2--------2-----------------|
|--5-------5---------------|---3--------3-----------------|
|--6-------6---------------|---4--------4-----------------|
|--------------------------|------------------------------|
|--------------------------|------------------------------|


  Ab                         F#
   E S S E S S E S S E S S     E  S S E S S E S S E S S
|--4-4-4-4-4-4-4-4-4-4-4-4-|---2--2-2-2-2-2-2-2-2-2-2-2-*|
|--4-4-4-4-4-4-4-4-4-4-4-4-|---2--2-2-2-2-2-2-2-2-2-2-2-*|
|--5-5-5-5-5-5-5-5-5-5-5-5-|---3--3-3-3-3-3-3-3-3-3-3-3-*|
|--6-6-6-6-6-6-6-6-6-6-6-6-|---4--4-4-4-4-4-4-4-4-4-4-4-*|
|--------------------------|----------------------------*|
|--------------------------|----------------------------*|
|
|  W                          +H            H
|-20-----------------------|-(20)-----------------------*|
|--------------------------|----------------------------*|
|--------------------------|----------------------------*|
|--------------------------|----------------------------*|
|--------------------------|----------------------------*|
|--------------------------|----------------------------*|
|
|  E E   E E   H               E  E   E E   H
|--4-------4---------------|---2--------2---------------*|
|--4-------4---------------|---2--------2---------------*|
|--5-------5---------------|---3--------3---------------*|
|--6-------6---------------|---4--------4---------------*|
|--------------------------|----------------------------*|
|--------------------------|----------------------------*|


Duration Legend
---------------
W - whole; H - half; Q - quarter; E - 8th; S - 16th; T - 32nd; X - 64th; a - acciaccatura
+ - note tied to previous; . - note dotted; .. - note double dotted
Uncapitalized letters represent notes that are staccato (1/2 duration)
Irregular groupings are notated above the duration line
Duration letters will always appear directly above the note/fret number it represents the
duration for.  Duration letters with no fret number below them represent rests.  Multi-
bar rests are notated in the form Wxn, where n is the number of bars to rest for.  Low
melody durations appear below the staff

Tablature Legend
----------------
 h   - hammer-on
 p   - pull-off
 b   - bend
 pb  - pre-bend
 r   - bend release (if no number after the r, then release immediately)
 /\  - slide into or out of (from/to "nowhere")
 s   - legato slide
 S   - shift slide
  - natural harmonic
[n]  - artificial harmonic
n(n) - tapped harmonic
 ~   - vibrato
 tr  - trill
 T   - tap
 TP  - trem. picking
 PM  - palm muting
\n/  - tremolo bar dip; n = amount to dip
 \n  - tremolo bar down
 n/  - tremolo bar up
/n\  - tremolo bar inverted dip
 =   - hold bend; also acts as connecting device for hammers/pulls
 <>  - volume swell (louder/softer)
 x   - on rhythm slash represents muted slash
 o   - on rhythm slash represents single note slash

Misc Legend
-----------
 |  - bar
||  - double bar
||o - repeat start
o|| - repeat end
*|  - double bar (ending)
 :  - bar (freetime)
 $  - Segno
 &  - Coda
Tempo markers -  = BPM(8/16=s8/s16), where s8 = swing 8ths, s16 = swing 16ths
Добавлено: 09.09.2015
Другие материалы по этой песне:

Страница создана 01.09.2013
http://primanota.ru/ventures/more-chords.htm
Привет, Гость.
Предлагаем пройти революционный курс по гитаре.
Подарок от PrimaNota.Ru, забирай!