PrimaNota.ru - самый крупный в мире бесплатный архив песенных текстов, аккордов, табулатур и нот


Ventures - Love Goddess Of Venus - таба, видео

Регистрация Запомнить меня
Войти через:  Facebook Google Twitter Vk Yandex Mail.ru

Ventures - Love Goddess Of Venus - таба, видео

Печатать
Просмотров: 118
Уроки эстрадного вокала в Санкт-Петербурге
-------------------------------------------------------------------------------
                 Love Goddess of Venus By The Ventures 
-------------------------------------------------------------------------------

Tuning: Standard (3/4 Time) 

INTRO: (CHORDS) 

A 
1   2   3  /  1   2   3  /  1   2   3  /  1   2   3  

C#m 
1   2   3  /  1   2   3  /  1   2   3  /  1   2   3  

Bm 
1   2   3  /  1   2   3  /  1   2   3  /  1   2   3  

E 
1   2   3  /  1   2   3  /  1   2   3  /  1   2   3  



VERSE 1: 

e|---------------------------------------------------------------------------|
B|---------------------------------------------------------------------------|
G|6/9---6/9------------9-----------6/9---6/11-----------9--------------------|
D|---11----11---12-------12-11-9------11-----11--12-------12-11--------------|
A|---------------------------------------------------------------------------|
E|---------------------------------------------------------------------------|


VERSE 1: (Chords) 

A                          C#m 
1   2   3  /  1   2   3  /  1   2   3  /  1   2   3  

Bm                         E 
1   2   3  /  1   2   3  /  1   2   3  /  1   2   3  

A                         F#m 
1   2   3  /  1   2   3  /  1   2   3  /  1   2   3  

Bm                         E 
1   2   3  /  1   2   3  /  1   2   3  /  1   2   3 

E 
1   2   3  /  1   2   3  

LIFT 1: 

e|---------------------------------------------------------------------------|
B|-------------------------------------14------14-15-12----------------------|
G|6/9---4/6-9-7-4----13---9-13-11-7---------13-------------------------------|
D|---------------------------------------------------------------------------|
A|---------------------------------------------------------------------------|
E|---------------------------------------------------------------------------|


LIFT 1: (Chords) 

C#m 
1   2   3  /  1   2   3  /  1   2   3  /  1   2   3  

Bm 
1   2   3  /  1   2   3  /  1   2   3  /  1   2   3  

C#m 
1   2   3  /  1   2   3  /  1   2   3  /  1   2   3  

Bm 
1   2   3  /  1   2   3  /  1   2   3  /  1   2   3  

C#m 
1   2   3  /  1   2   3  /  1   2   3  /  1   2   3  

Bm 
1   2   3  /  1   2   3  /  1   2   3  /  1   2   3  

A             G             F 
1   2   3  /  1   2   3  /  1   2   3  /  1   2   3 


VERSE 2: 

e|---------------------------------------------------------------------------|
B|---------------------------------------------------------------------------|
G|---------------------------------------------------------------------------|
D|---------------------------------------------------------------------------|
A|8-5--8-5---6---8-6-5-3----8-5--10-5---6--8-6-5-3---------------------------|
E|---------------------------------------------------------------------------|


VERSE 2: (Chords) 

Bb                         Dm
1   2   3  /  1   2   3  /  1   2   3  /  1   2   3  

Cm                         F 
1   2   3  /  1   2   3  /  1   2   3  /  1   2   3  

Bb                        Gm
1   2   3  /  1   2   3  /  1   2   3  /  1   2   3  

Cm                        F 
1   2   3  /  1   2   3  /  1   2   3  /  1   2   3 

F 
1   2   3  /  1   2   3  


LIFT 2: 

e|---------------------------------------------------------------------------|
B|---------------------------------------------------------------------------|
G|--------------------------------------7----7-8-5---------------------------|
D|-------------------------7---7-5---------7---------------------------------|
A|8-5-8-6-3---8-5-8-6-3------8-----6-----------------------------------------|
E|---------------------------------------------------------------------------|


LIFT 2: (Chords) 

Dm
1   2   3  /  1   2   3  /  1   2   3  /  1   2   3  

Cm
1   2   3  /  1   2   3  /  1   2   3  /  1   2   3  

Dm
1   2   3  /  1   2   3  /  1   2   3  /  1   2   3  

Cm
1   2   3  /  1   2   3  /  1   2   3  /  1   2   3  

Dm
1   2   3  /  1   2   3  /  1   2   3  /  1   2   3 

Cm 
1   2   3  /  1   2   3  /  1   2   3  /  1   2   3  

Dm 
1   2   3  /  1   2   3  /  1   2   3  /  1   2   3  

Cm 
1   2   3  /  1   2   3  /  1   2   3  /  1   2   3  

Bb           Ab            F#             E
1   2   3  /  1   2   3  /  1   2   3  /  1   2   3


REPEAT VERSE 1: 

A                          C#m 
1   2   3  /  1   2   3  /  1   2   3  /  1   2   3  

Bm                          E 
1   2   3  /  1   2   3  /  1   2   3  /  1   2   3  

A                          F#m 
1   2   3  /  1   2   3  /  1   2   3  /  1   2   3  

Bm                         E 
1   2   3  /  1   2   3  /  1   2   3  /  1   2   3 


OUTRO : 

A                          C#m 
1   2   3  /  1   2   3  /  1   2   3  /  1   2   3  

A                          C#m 
1   2   3  /  1   2   3  /  1   2   3  /  1   2   3 

A                          C#m 
1   2   3  /  1   2   3  /  1   2   3  /  1   2   3  

A                          C#m 
1   2   3  /  1   2   3  /  1   2   3  /  1   2   3 

************************************

| /   slide up
| \   slide down
| h   hammer-on
| p   pull-off
| ~   vibrato
| +   harmonic
| x   Mute note
| b   Bend
| pb  Pre-bend
| br  Bend release
| pbr Pre-bend release
| brb Bend release bend

************************************
Добавлено: 07.06.2016
Другие материалы по этой песне:
  • Аккорды и текст

Страница создана 07.06.2016
http://primanota.ru/ventures/love-goddess-of-venus-chords.htm
Привет, Гость.
Предлагаем пройти революционный курс по гитаре.
Подарок от PrimaNota.Ru, забирай!