PrimaNota.ru - самый крупный в мире бесплатный архив песенных текстов, аккордов, табулатур и нот


Ventures - Josie - бас-таба, видео

Регистрация Запомнить меня
Войти через:  Facebook Google Twitter Vk Yandex Mail.ru

Ventures - Josie - бас-таба, видео

Печатать
Просмотров: 106
Ventures_Josie
(on the Another Smash album)

Basstab by Jan Bjorklund, Finland
 jani_bjorklund@yahoo.se>
You are welcome to request for basstabs!
Fingering and positions as suggested by TablEdit,
please use common sense!

TablEdited by Jan Bjorklund
Tuning : E A D G 	Time Signature: 4/4

  |       |       |       |          |       |       |
      |         
|-3-------3-------2-------2--------|-0-------0-------1-------1--------|
|----------------------------------|----------------------------------|
|----------------------------------|----------------------------------|
|----------------------------------|----------------------------------|

  |       |       |       |          |       |       |
      |         
|-2--------------------------------|----------------------------------|
|---------3-------1----------------|-3--------------------------------|
|-------------------------3--------|----------------------------------|
|----------------------------------|----------------------------------|

  |       |       |       |          |       |       |
      |         
|-3-3-3---3-3-3---4-4-4---4-4-4----|-5--------------------------------|
|----------------------------------|----------------------------------|
|----------------------------------|----------------------------------|
|----------------------------------|----------------------------------|

  |       |       |       |          |       |       |
      |         
|---------2-------5-------2--------|----------------------------------|
|-3--------------------------------|-3-------0---------------3--------|
|----------------------------------|-----------------3----------------|
|----------------------------------|----------------------------------|

  |       |       |       |          |       |       |
      |         
|-3-------3-------1-------1--------|-------------------------5--------|
|----------------------------------|---------5-------3----------------|
|----------------------------------|-6--------------------------------|
|----------------------------------|----------------------------------|

  |       |       |       |          |       |       |
      |         
|-3-------2-------0-------3--------|-5-------5-------3----------------|
|----------------------------------|-------------------------5--------|
|----------------------------------|----------------------------------|
|----------------------------------|----------------------------------|

  |       |       |       |          |       |       |
      |         
|-----------------10---------------|-3-------0-------1-------1--------|
|---------10--------------10-------|----------------------------------|
|-8--------------------------------|----------------------------------|
|----------------------------------|----------------------------------|

  |       |       |       |          |       |       |
      |         
|---------2-------5-------2--------|----------------------------------|
|-3--------------------------------|-3-------0---------------3--------|
|----------------------------------|-----------------3----------------|
|----------------------------------|----------------------------------|

  |       |       |       |          |       |       |
      |         
|-3-------3-------1-------1--------|-------------------------5--------|
|----------------------------------|---------5-------3----------------|
|----------------------------------|-6--------------------------------|
|----------------------------------|----------------------------------|

  |       |       |       |          |       |       |
      |         
|-3-------2-------0-------0--------|-------------------------5--------|
|----------------------------------|---------4-------3----------------|
|----------------------------------|-6--------------------------------|
|----------------------------------|----------------------------------|

  |       |       |       |          |       |       |
      |         
|-3--------------------------------|-0-0-0---0------------------------|
|---------3-------0-------4--------|-----------------0-0-0---0--------|
|----------------------------------|----------------------------------|
|----------------------------------|----------------------------------|

  |       |       |       |          |       |       |
      |         
|-0-0-0---0------------------------|-0-0-0---0------------------------|
|-----------------0-0-0---0--------|-----------------0-0-0---0--------|
|----------------------------------|----------------------------------|
|----------------------------------|----------------------------------|

  |       |       |       |          |       |       |
      |         
|-0-0-0---0------------------------|-0-0-0---0------------------------|
|-----------------0-0-0---0--------|-----------------0-0-0---0--------|
|----------------------------------|----------------------------------|
|----------------------------------|----------------------------------|

  |       |       |       |          |       |       |
      |         
|-0-0-0---0------------------------|-0-0-0---0-------0-0-0---0--------|
|-----------------0-0-0---0--------|----------------------------------|
|----------------------------------|----------------------------------|
|----------------------------------|----------------------------------|

  |       |       |       |          |       |       |
      |         
|----------------------------------|----------------------------------|
|-----------------3-3-3---3-3-3----|-3--------------------------------|
|-3-3-3---3-3-3--------------------|----------------------------------|
|----------------------------------|----------------------------------|

  |       |       |       |          |       |       |
      |         
|---------2-------5-------2--------|----------------------------------|
|-3--------------------------------|-3-------0---------------3--------|
|----------------------------------|-----------------3----------------|
|----------------------------------|----------------------------------|

  |       |       |       |          |       |       |
      |         
|-3-------3-------1-------1--------|-------------------------5--------|
|----------------------------------|---------5-------3----------------|
|----------------------------------|-6--------------------------------|
|----------------------------------|----------------------------------|

  |       |       |       |          |       |       |
      |         
|-3-------2-------0-------0--------|-------------------------5--------|
|----------------------------------|---------4-------3----------------|
|----------------------------------|-6--------------------------------|
|----------------------------------|----------------------------------|

  |       |       |       |          |       |       |
      |         
|-3-------1------------------------|-------------------------5--------|
|-----------------3-------0--------|---------5-------3----------------|
|----------------------------------|-6--------------------------------|
|----------------------------------|----------------------------------|

  |       |       |       |          |       |       |
      |         
|-3---------------0----------------|-------------------------5--------|
|----------------------------------|---------4-------3----------------|
|----------------------------------|-6--------------------------------|
|----------------------------------|----------------------------------|

  |       |       |       |          |       |       |
      |         
|-3-------0-----------------0-2----|-3-3-3---3-------2-2-2---2--------|
|-----------------3-------3--------|----------------------------------|
|----------------------------------|----------------------------------|
|----------------------------------|----------------------------------|

  |       |       |       |          |       |       |
      |         
|-0-0-0---0-------1-1-1---1--------|-2--------------------------------|
|----------------------------------|---------3-------1----------------|
|----------------------------------|-------------------------3--------|
|----------------------------------|----------------------------------|

  |       |       |       |          |       |       |
      |         
|---------------------------0-2----|-3-3-3---3-------2-2-2---2--------|
|-------------------------3--------|----------------------------------|
|-1--------------------------------|----------------------------------|
|----------------------------------|----------------------------------|

  |       |       |       |          |       |       |
      |         
|-0-0-0---0-------1-1-1---1--------|-2--------------------------------|
|----------------------------------|---------3-------1----------------|
|----------------------------------|-------------------------3--------|
|----------------------------------|----------------------------------|

  |       |       |       |          |       |       |
      |         
|---------------------------0-2----|-3-3-3---3-------2-2-2---2--------|
|-------------------------3--------|----------------------------------|
|-1--------------------------------|----------------------------------|
|----------------------------------|----------------------------------|

  |       |       |       |          |       |       |
      |         
|-0-0-0---0-------1-1-1---1--------|-2--------------------------------|
|----------------------------------|---------3-------1----------------|
|----------------------------------|-------------------------3--------|
|----------------------------------|----------------------------------|

  |       |       |       |               
|----------------------------------|
|----------------------------------|
|-1--------------------------------|
|----------------------------------|


Created with TablEdit http://www.tabledit.com/

     
Добавлено: 16.08.2013
Другие материалы по этой песне:
  • Аккорды и текст

Страница создана 16.08.2013
http://primanota.ru/ventures/josie-chords.htm
Привет, Гость.
Предлагаем пройти революционный курс по гитаре.
Подарок от PrimaNota.Ru, забирай!