PrimaNota.ru - самый крупный в мире бесплатный архив песенных текстов, аккордов, табулатур и нот


Ventures - Jokers Wild - таба, бас-таба, видео

Регистрация Запомнить меня
Войти через:  Facebook Google Twitter Vk Yandex Mail.ru

Ventures - Jokers Wild - таба, бас-таба, видео

Печатать
Просмотров: 147
JOKER'S WILD

As recorded by The Ventures
(From the 1966 Album THE VENTURES PLAY THE "BATMAN" THEME)

Music by Bob Bogle, Nokie Edwards, Mel Taylor & Don Wilson

Transcribed by Slowhand


Gtr I (E A D G B E) - 'Nokie Edwards - Lead Guitar'
Gtr II (E A D G B E) - 'Don Wilson - Rhythm Guitar'
Gtr III (E A D G B E) - 'Saxophone'



  Q=140
  N.C.                    Am      F         Am      F
 4/4
  Gtr II (El. Gtr.)
  W          W          E E E E E E E E   E E E E E E E E
|----------|----------|---5-5-5---5-5-5-|---5-5-5---5-5-5--|
|----------|----------|---5-5-5---6-6-6-|---5-5-5---6-6-6--|
|----------|----------|---5-5-5---5-5-5-|---5-5-5---5-5-5--|
|----------|----------|---7-7-7---7-7-7-|---7-7-7---7-7-7--|
|----------|----------|-----------------|------------------|
|----------|----------|-----------------|------------------|
|
| Gtr III (Sax. arr. for Gtr.)
| W          W          H       H         H       H
|----------|----------|-----------------|------------------|
|----------|----------|-----------------|------------------|
|----------|----------|-----------------|------------------|
|----------|----------|-----------------|------------------|
|----------|----------|-0---------------|-0----------------|
|----------|----------|---------1-------|---------1--------|


    Am      F         E
  Gtr I (El. Gtr.)
  W                 W
|-----------------|-----------------------||
|-----------------|-----------------------||
|-----------------|-----------------------||
|-----------------|-----------------------||
|-----------------|-----------------------||
|-----------------|-----------------------||
|
| Gtr II
| E E E E E E E E   E S S E E S S S S E E
|---5-5-5---5-5-5-|---0-0-0-0-0-0-0-0-0-0-||
|---5-5-5---6-6-6-|---0-0-0-0-0-0-0-0-0-0-||
|---5-5-5---5-5-5-|---1-1-1-1-1-1-1-1-1-1-||
|---7-7-7---7-7-7-|---2-2-2-2-2-2-2-2-2-2-||
|-----------------|-----------------------||
|-----------------|-----------------------||
|
| Gtr III
| H       H         W
|-----------------|-----------------------||
|-----------------|-----------------------||
|-----------------|-----------------------||
|-----------------|-----------------------||
|-0---------------|-----------------------||
|---------1-------|-0---------------------||


    Am       F   Am      F           Am
  E E E E E  E E E    E  E E E  E  E E E
|------------------|----------------------|
|------------------|----------------------|
|------------------|----------------------|
|------------------|----------------------|
|-0-2-2-0-3--3-0-2-|--2--0-3-3--0--2-2-0--|
|------------------|----------------------|
|
| E E E E E  E E E   +E  E E E  E  E E E
|---0-0-0--------0-|-(0)-------------0-0--|
|---1-1-1----1-1-1-|-(1)-1-1-1--1--1-1-1--|
|---2-2-2----2-2-2-|-(2)-2-2-2--2--2-2-2--|
|------------3-3---|-----3-3-3--3--3------|
|------------------|----------------------|
|------------------|----------------------|
|
| H       Q.     E   +Q    Q   +E  Q   E
|------------------|----------------------|
|------------------|----------------------|
|------------------|----------------------|
|------------------|----------------------|
|-0--------------0-|-(0)-----------0------|
|---------1--------|-------1---(1)--------|


     F          G           E
  E.   S E E E.   S E E   W
|-----------------------|-----------------------|
|-----------------------|-----------------------|
|------------0----0---0-|-----------------------|
|-3----3---3--------0---|-2---------------------|
|--------3--------------|-----------------------|
|-----------------------|-----------------------|
|
| E  E   E E E  E   E E   E S S E E S S S S E E
|-----------------------|---0-0-0-0-0-0-0-0-0-0-|
|----1---1-1----3---3-3-|---0-0-0-0-0-0-0-0-0-0-|
|----2---2-2----4---4-4-|---1-1-1-1-1-1-1-1-1-1-|
|----3---3-3----5---5-5-|-----------------------|
|-----------------------|-----------------------|
|-----------------------|-----------------------|
|
| H          H            W
|-----------------------|-----------------------|
|-----------------------|-----------------------|
|-----------------------|-----------------------|
|-----------------------|-----------------------|
|-----------------------|-----------------------|
|-1----------3----------|-0---------------------|


    Am       F   Am      F           Am
  E E E E E  E E E    E  E E E  E  E E E
|------------------|----------------------|
|------------------|----------------------|
|------------------|----------------------|
|------------------|----------------------|
|-0-2-2-0-3--3-0-2-|--2--0-3-3--0--2-2-0--|
|------------------|----------------------|
|
| E E E E E  E E E   +E  E E E  E  E E E
|---0-0-0--------0-|-(0)-------------0-0--|
|---1-1-1----1-1-1-|-(1)-1-1-1--1--1-1-1--|
|---2-2-2----2-2-2-|-(2)-2-2-2--2--2-2-2--|
|------------3-3---|-----3-3-3--3--3------|
|------------------|----------------------|
|------------------|----------------------|
|
| H       Q.     E   +Q    Q   +E  Q   E
|------------------|----------------------|
|------------------|----------------------|
|------------------|----------------------|
|------------------|----------------------|
|-0--------------0-|-(0)-----------0------|
|---------1--------|-------1---(1)--------|


     F          G           C                     Am
  E.   S E E E.   S E E   W                       Q.         E +E  Q   E
|-----------------------|-----------------------|------------------------|
|-----------------------|-----------------------|------------------------|
|------------0----0---0-|-----------------------|------------------------|
|-3----3---3--------0---|-2---------------------|-2----------------------|
|--------3--------------|-----------------------|------------3-(3)-0-----|
|-----------------------|-----------------------|----------------------1-|
|
| E  E   E E E  E   E E   E S S E E S S S S E E   S  S S S E E  Q    Q
|-----------------------|-----------------------|-0--0-0-0-0----0----0---|
|----1---1-1----3---3-3-|---1-1-1-1-1-1-1-1-1-1-|-1--1-1-1-1----1----1---|
|----2---2-2----4---4-4-|---0-0-0-0-0-0-0-0-0-0-|-2--2-2-2-2----2----2---|
|----3---3-3----5---5-5-|---2-2-2-2-2-2-2-2-2-2-|------------------------|
|-----------------------|-----------------------|------------------------|
|-----------------------|-----------------------|------------------------|
|
| H          H            W                       H            +Q.     E
|-----------------------|-----------------------|------------------------|
|-----------------------|-1---------------------|------------------------|
|-----------------------|-----------------------|------------------------|
|-----------------------|-----------------------|-2------------(2)-------|
|-----------------------|-----------------------|------------------------|
|-1----------3----------|-----------------------|----------------------1-|


  E        F         Am                       E        F
  Q     Q  E E E E   Q.         E +E  Q   E   Q     Q  E E E E
|------------------|------------------------|------------------|
|------------------|------------------------|------------------|
|------------------|------------------------|------------------|
|------------------|-2----------------------|------------------|
|-------2----3---3-|------------3-(3)-0-----|-------2----3---3-|
|-0--------1---1---|----------------------1-|-0--------1---1---|
|
| S S E Q  E E E E   S  S S S E E  Q    Q     S S E Q  E E E E
|-0-0-0-0----------|-0--0-0-0-0----0----0---|-0-0-0-0----------|
|-0-0-0-0--1-1-1-1-|-1--1-1-1-1----1----1---|-0-0-0-0--1-1-1-1-|
|-1-1-1-1--2-2-2-2-|-2--2-2-2-2----2----2---|-1-1-1-1--2-2-2-2-|
|----------3-3-3-3-|------------------------|----------3-3-3-3-|
|------------------|------------------------|------------------|
|------------------|------------------------|------------------|
|
| Q     Q  E E E E   H            +Q.     E   Q     Q  E E E E
|------------------|------------------------|------------------|
|------------------|------------------------|------------------|
|------------------|------------------------|------------------|
|------------------|-2------------(2)-------|------------------|
|-------2----3---3-|------------------------|-------2----3---3-|
|-0--------1---1---|----------------------1-|-0--------1---1---|


  Am                       E        F         Am
  Q.         E +E  Q   E   Q     Q  E E E E   W
|------------------------|------------------|-------------------------|
|------------------------|------------------|-------------------------|
|------------------------|------------------|-------------------------|
|-2----------------------|------------------|-------------------------|
|------------3-(3)-0-----|-------2----3---3-|-0-----------------------|
|----------------------1-|-0--------1---1---|-------------------------|
|
| S  S S S E E  Q    Q     S S E Q  E E E E   S S S S E E S S S S E E
|-0--0-0-0-0----0----0---|-0-0-0-0----------|-0-0-0-0-0-0-0-0-0-0-0-0-|
|-1--1-1-1-1----1----1---|-0-0-0-0--1-1-1-1-|-1-1-1-1-1-1-1-1-1-1-1-1-|
|-2--2-2-2-2----2----2---|-1-1-1-1--2-2-2-2-|-2-2-2-2-2-2-2-2-2-2-2-2-|
|------------------------|----------3-3-3-3-|-------------------------|
|------------------------|------------------|-------------------------|
|------------------------|------------------|-------------------------|
|
| H            +Q.     E   Q     Q  E E E E   W
|------------------------|------------------|-------------------------|
|------------------------|------------------|-------------------------|
|------------------------|------------------|-------------------------|
|-2------------(2)-------|------------------|-------------------------|
|------------------------|-------2----3---3-|-0-----------------------|
|----------------------1-|-0--------1---1---|-------------------------|


  +W
|---------------------------|
|---------------------------|
|---------------------------|
|---------------------------|
|-(0)-----------------------|
|---------------------------|
|
|  S  S S S E E S S S S E E
|--0--0-0-0-0-0-0-0-0-0-0-0-|
|--1--1-1-1-1-1-1-1-1-1-1-1-|
|--2--2-2-2-2-2-2-2-2-2-2-2-|
|---------------------------|
|---------------------------|
|---------------------------|
|
| +W
|---------------------------|
|---------------------------|
|---------------------------|
|---------------------------|
|-(0)-----------------------|
|---------------------------|


              F             Am          F
  S S S S E E S S S S E E   S S S S E E S S S S E E
|-0-0-0-0-0-0-1-1-1-1-1-1-|-0-0-0-0-0-0-1-1-1-1-1----|
|-1-1-1-1-1-1-1-1-1-1-1-1-|-1-1-1-1-1-1-1-1-1-1-1----|
|-2-2-2-2-2-2-2-2-2-2-2-2-|-2-2-2-2-2-2-2-2-2-2-2----|
|-------------------------|--------------------------|
|-------------------------|--------------------------|
|-------------------------|--------------------------|
|
| S S S S E E S S S S E E   S S S S E E S S S S E E
|-0-0-0-0-0-0-------------|-0-0-0-0-0-0--------------|
|-1-1-1-1-1-1-1-1-1-1-1-1-|-1-1-1-1-1-1-1-1-1-1-1-1--|
|-2-2-2-2-2-2-2-2-2-2-2-2-|-2-2-2-2-2-2-2-2-2-2-2-2--|
|-------------3-3-3-3-3-3-|-------------3-3-3-3-3-3--|
|-------------------------|--------------------------|
|-------------------------|--------------------------|
|
| H           H             H           H
|-------------------------|--------------------------|
|-------------------------|--------------------------|
|-------------------------|--------------------------|
|-------------------------|--------------------------|
|-0-----------------------|-0------------------------|
|-------------1-----------|-------------1------------|


    Am      F   Am      F         Am
  E E E E E E E E    E  E E E E E E E
|-----------------|-------------------|
|-----------------|-------------------|
|-----------------|-------------------|
|-----------------|-------------------|
|-0-2-2-0-3-3-0-2-|--2--0-3-3-0-2-2-0-|
|-----------------|-------------------|
|
| E E E E E E E E   +E  E E E E E E E
|---0-0-0-------0-|-(0)-----------0-0-|
|---1-1-1---1-1-1-|-(1)-1-1-1-1-1-1-1-|
|---2-2-2---2-2-2-|-(2)-2-2-2-2-2-2-2-|
|-----------3-3---|-----3-3-3-3-3-----|
|-----------------|-------------------|
|-----------------|-------------------|


     F          G           E
  E.   S E E E.   S E E   W
|-----------------------|------------------------|
|-----------------------|------------------------|
|------------0----0---0-|------------------------|
|-3----3---3--------0---|-2----------------------|
|--------3--------------|------------------------|
|-----------------------|------------------------|
|
| E  E   E E E  E   E E   E S S E E S S S S E E
|-----------------------|---0-0-0-0-0-0-0-0-0-0--|
|----1---1-1----3---3-3-|---0-0-0-0-0-0-0-0-0-0--|
|----2---2-2----4---4-4-|---1-1-1-1-1-1-1-1-1-1--|
|----3---3-3----5---5-5-|------------------------|
|-----------------------|------------------------|
|-----------------------|------------------------|


    Am      F   Am      F         Am
  E E E E E E E E    E  E E E E E E E
|-----------------|-------------------|
|-----------------|-------------------|
|-----------------|-------------------|
|-----------------|-------------------|
|-0-2-2-0-3-3-0-2-|--2--0-3-3-0-2-2-0-|
|-----------------|-------------------|
|
| E E E E E E E E   +E  E E E E E E E
|---0-0-0-------0-|-(0)-----------0-0-|
|---1-1-1---1-1-1-|-(1)-1-1-1-1-1-1-1-|
|---2-2-2---2-2-2-|-(2)-2-2-2-2-2-2-2-|
|-----------3-3---|-----3-3-3-3-3-----|
|-----------------|-------------------|
|-----------------|-------------------|


     F          G           C
  E.   S E E E.   S E E   W
|-----------------------|------------------------|
|-----------------------|------------------------|
|------------0----0---0-|------------------------|
|-3----3---3--------0---|-2----------------------|
|--------3--------------|------------------------|
|-----------------------|------------------------|
|
| E  E   E E E  E   E E   E S S E E S S S S E E
|-----------------------|------------------------|
|----1---1-1----3---3-3-|---1-1-1-1-1-1-1-1-1-1--|
|----2---2-2----4---4-4-|---0-0-0-0-0-0-0-0-0-0--|
|----3---3-3----5---5-5-|---2-2-2-2-2-2-2-2-2-2--|
|-----------------------|------------------------|
|-----------------------|------------------------|


  Am                       E        F         Am
  Q.         E +E  Q   E   Q     Q  E E E E   Q.         E +E  Q   E
|------------------------|------------------|-------------------------|
|------------------------|------------------|-------------------------|
|------------------------|------------------|-------------------------|
|-2----------------------|------------------|-2-----------------------|
|------------3-(3)-0-----|-------2----3---3-|------------3-(3)-0------|
|----------------------1-|-0--------1---1---|----------------------1--|
|
| S  S S S E E  Q    Q     S S E Q  E E E E   S  S S S E E  Q    Q
|-0--0-0-0-0----0----0---|-0-0-0-0----------|-0--0-0-0-0----0----0----|
|-1--1-1-1-1----1----1---|-0-0-0-0--1-1-1-1-|-1--1-1-1-1----1----1----|
|-2--2-2-2-2----2----2---|-1-1-1-1--2-2-2-2-|-2--2-2-2-2----2----2----|
|------------------------|----------3-3-3-3-|-------------------------|
|------------------------|------------------|-------------------------|
|------------------------|------------------|-------------------------|


  E        F         Am                       E        F
  Q     Q  E E E E   Q.         E +E  Q   E   Q     Q  E E E E
|------------------|------------------------|------------------|
|------------------|------------------------|------------------|
|------------------|------------------------|------------------|
|------------------|-2----------------------|------------------|
|-------2----3---3-|------------3-(3)-0-----|-------2----3---3-|
|-0--------1---1---|----------------------1-|-0--------1---1---|
|
| S S E Q  E E E E   S  S S S E E  Q    Q     S S E Q  E E E E
|-0-0-0-0----------|-0--0-0-0-0----0----0---|-0-0-0-0----------|
|-0-0-0-0--1-1-1-1-|-1--1-1-1-1----1----1---|-0-0-0-0--1-1-1-1-|
|-1-1-1-1--2-2-2-2-|-2--2-2-2-2----2----2---|-1-1-1-1--2-2-2-2-|
|----------3-3-3-3-|------------------------|----------3-3-3-3-|
|------------------|------------------------|------------------|
|------------------|------------------------|------------------|


  Am
  W
|-------------------------||
|-------------------------||
|-------------------------||
|-------------------------||
|-0-----------------------||
|-------------------------||
|
| S S S S E E S S S S E E
|-0-0-0-0-0-0-0-0-0-0-0-0-||
|-1-1-1-1-1-1-1-1-1-1-1-1-||
|-2-2-2-2-2-2-2-2-2-2-2-2-||
|-------------------------||
|-------------------------||
|-------------------------||


  Am                          Dm
  +W                          S S S S E E S S S S E E
|---------------------------|-5-5-5-5-5-5-6-6-6-6-6-6-|
|---------------------------|-6-6-6-6-6-6-6-6-6-6-6-6-|
|---------------------------|-7-7-7-7-7-7-7-7-7-7-7-7-|
|---------------------------|-------------------------|
|-(0)-----------------------|-------------------------|
|---------------------------|-------------------------|
|
|  S  S S S E E S S S S E E   S S S S E E S S S S E E
|--0--0-0-0-0-0-0-0-0-0-0-0-|-1-1-1-1-1-1-1-1-1-1-1-1-|
|--1--1-1-1-1-1-1-1-1-1-1-1-|-3-3-3-3-3-3-3-3-3-3-3-3-|
|--2--2-2-2-2-2-2-2-2-2-2-2-|-2-2-2-2-2-2-3-3-3-3-3-3-|
|---------------------------|-------------------------|
|---------------------------|-------------------------|
|---------------------------|-------------------------|


              Bb              Dm      Bb  Dm
  S S S S E E S S S S E E   E E E E E E E E
|-5-5-5-5-5-5-6-6-6-6-6---|-----------------|
|-6-6-6-6-6-6-6-6-6-6-6---|-----------------|
|-7-7-7-7-7-7-7-7-7-7-7---|-----------------|
|-------------------------|-0-2-2-0-3-3-0-2-|
|-------------------------|-----------------|
|-------------------------|-----------------|
|
| S S S S E E S S S S E E   E E E E E E E E
|-1-1-1-1-1-1-1-1-1-1-1-1-|---1-1-1---1-1-1-|
|-3-3-3-3-3-3-3-3-3-3-3-3-|---3-3-3---3-3-3-|
|-2-2-2-2-2-2-3-3-3-3-3-3-|---2-2-2---3-3-2-|
|-------------------------|-----------------|
|-------------------------|-----------------|
|-------------------------|-----------------|


                         Bb         C
   E  E E E E E E E   E.   S E E E.   S E E
|-------------------|-----------------------|
|-------------------|------------1----1---1-|
|-------------------|-3----3---3--------0---|
|--2--0-3-3-0-2-2-0-|--------3--------------|
|-------------------|-----------------------|
|-------------------|-----------------------|
|
| +E  E E E E E E E   E  E   E E E  E   E E
|-(1)-1-1-1-1-1-1-1-|-----------------------|
|-(3)-3-3-3-3-3-3-3-|----3---3-3----5---5-5-|
|-(2)-3-3-3-3-3-2-2-|----3---3-3----5---5-5-|
|-------------------|----3---3-3----5---5-5-|
|-------------------|-----------------------|
|-------------------|-----------------------|


    A                       Dm      Bb  Dm
  W                       E E E E E E E E
|-----------------------|-----------------|
|-----------------------|-----------------|
|-2---------------------|-----------------|
|-----------------------|-0-2-2-0-3-3-0-2-|
|-----------------------|-----------------|
|-----------------------|-----------------|
|
| E S S E E S S S S E E   E E E E E E E E
|---0-0-0-0-0-0-0-0-0-0-|---1-1-1---1-1-1-|
|---2-2-2-2-2-2-2-2-2-2-|---3-3-3---3-3-3-|
|---2-2-2-2-2-2-2-2-2-2-|---2-2-2---3-3-2-|
|-----------------------|-----------------|
|-----------------------|-----------------|
|-----------------------|-----------------|


      Bb        Dm       Bb         C
   E  E E E E E E E   E.   S E E E.   S E E
|-------------------|------------------------|
|-------------------|------------1----1---1--|
|-------------------|-3----3---3--------0----|
|--2--0-3-3-0-2-2-0-|--------3---------------|
|-------------------|------------------------|
|-------------------|------------------------|
|
| +E  E E E E E E E   E  E   E E E  E   E E
|-(1)-1-1-1-1-1-1-1-|----1---1-1----3---3-3--|
|-(3)-3-3-3-3-3-3-3-|----3---3-3----5---5-5--|
|-(2)-3-3-3-3-3-2-2-|----3---3-3----5---5-5--|
|-------------------|------------------------|
|-------------------|------------------------|
|-------------------|------------------------|


    F                     Dm                       A        Bb
  W                       Q.         E +E  Q   E   Q     Q  E E E E
|-----------------------|------------------------|-------------------|
|-----------------------|------------------------|-------------------|
|-2---------------------|-2----------------------|-------------------|
|-----------------------|------------3-(3)-0-----|-------2----3---3--|
|-----------------------|----------------------1-|-0--------1---1----|
|-----------------------|------------------------|-------------------|
|
| E S S E E S S S S E E   S  S S S E E  Q    Q     S S E Q  E E E E
|---1-1-1-1-1-1-1-1-1-1-|-5--5-5-5-5----5----5---|-5-5-5-5--1-1-1-1--|
|---1-1-1-1-1-1-1-1-1-1-|-6--6-6-6-6----6----6---|-5-5-5-5--3-3-3-3--|
|---2-2-2-2-2-2-2-2-2-2-|-7--7-7-7-7----7----7---|-6-6-6-6--3-3-3-3--|
|-----------------------|------------------------|-------------------|
|-----------------------|------------------------|-------------------|
|-----------------------|------------------------|-------------------|


  Dm                       A        Bb        Dm
  Q.         E +E  Q   E   Q     Q  E E E E   Q.         E +E  Q   E
|------------------------|------------------|------------------------|
|------------------------|------------------|------------------------|
|-2----------------------|------------------|-2----------------------|
|------------3-(3)-0-----|-------2----3---3-|------------3-(3)-0-----|
|----------------------1-|-0--------1---1---|----------------------1-|
|------------------------|------------------|------------------------|
|
| S  S S S E E  Q    Q     S S E Q  E E E E   S  S S S E E  Q    Q
|-5--5-5-5-5----5----5---|-5-5-5-5--1-1-1-1-|-5--5-5-5-5----5----5---|
|-6--6-6-6-6----6----6---|-5-5-5-5--3-3-3-3-|-6--6-6-6-6----6----6---|
|-7--7-7-7-7----7----7---|-6-6-6-6--3-3-3-3-|-7--7-7-7-7----7----7---|
|------------------------|------------------|------------------------|
|------------------------|------------------|------------------------|
|------------------------|------------------|------------------------|


  A        Bb          Dm                   C
  Q     Q  E E E E   E S S E E E E E E    E S S E E E E E E
|------------------|---1-1-1-1-1-1-1---||-------------------|
|------------------|---3-3-3-3-3-3-3---||-5-5-5-5-5-5-5-5---|
|------------------|---2-2-2-2-2-2-2---||-5-5-5-5-5-5-5-5---|
|-------2----3---3-|-------------------||-5-5-5-5-5-5-5-5---|
|-0--------1---1---|-------------------||-------------------|
|------------------|-------------------||-------------------|
|
| S S E Q  E E E E   E S S E E E E E E    E S S E E E E E E
|-5-5-5-5--1-1-1-1-|---1-1-1-1-1-1-1-1-||-------------------|
|-5-5-5-5--3-3-3-3-|---3-3-3-3-3-3-3-3-||---5-5-5-5-5-5-5-5-|
|-6-6-6-6--3-3-3-3-|---2-2-2-2-2-2-2-2-||---5-5-5-5-5-5-5-5-|
|------------------|-------------------||---5-5-5-5-5-5-5-5-|
|------------------|-------------------||-------------------|
|------------------|-------------------||-------------------|


  Am          F             Am          F               Am      F   Am
  S S S S E E S S S S E E   S S S S E E S S S S E E   E E E E E E E E
|-------------------------|-------------------------|------------------|
|-5-5-5-5-5-5-6-6-6-6-6-6-|-5-5-5-5-5-5-6-6-6-6-6---|------------------|
|-5-5-5-5-5-5-5-5-5-5-5-5-|-5-5-5-5-5-5-5-5-5-5-5---|------------------|
|-7-7-7-7-7-7-7-7-7-7-7-7-|-7-7-7-7-7-7-7-7-7-7-7---|------------------|
|-------------------------|-------------------------|-0-2-2-0-3-3-0-2--|
|-------------------------|-------------------------|------------------|
|
| S S S S E E S S S S E E   S S S S E E S S S S E E   E E E E E E E E
|-------------------------|-------------------------|---0-0-0-------0--|
|-1-1-1-1-1-1-1-1-1-1-1-1-|-1-1-1-1-1-1-1-1-1-1-1-1-|---1-1-1---1-1-1--|
|-2-2-2-2-2-2-2-2-2-2-2-2-|-2-2-2-2-2-2-2-2-2-2-2-2-|---2-2-2---2-2-2--|
|-2-2-2-2-2-2-3-3-3-3-3-3-|-2-2-2-2-2-2-3-3-3-3-3-3-|-----------3-3----|
|-------------------------|-------------------------|------------------|
|-------------------------|-------------------------|------------------|


      F         Am       F          G
   E  E E E E E E E   E.   S E E E.   S E E
|-------------------|-----------------------|
|-------------------|-----------------------|
|-------------------|------------0----0---0-|
|-------------------|-3----3---3--------0---|
|--2--0-3-3-0-2-2-0-|--------3--------------|
|-------------------|-----------------------|
|
| +E  E E E E E E E   E  E   E E E  E   E E
|-(0)-----------0-0-|-----------------------|
|-(1)-1-1-1-1-1-1-1-|----1---1-1----3---3-3-|
|-(2)-2-2-2-2-2-2-2-|----2---2-2----4---4-4-|
|-----3-3-3-3-3-----|----3---3-3----5---5-5-|
|-------------------|-----------------------|
|-------------------|-----------------------|


    E                       Am      F   Am
  W                       E E E E E E E E
|-----------------------|------------------|
|-----------------------|------------------|
|-----------------------|------------------|
|-2---------------------|------------------|
|-----------------------|-0-2-2-0-3-3-0-2--|
|-----------------------|------------------|
|
| E S S E E S S S S E E   E E E E E E E E
|---0-0-0-0-0-0-0-0-0-0-|---0-0-0-------0--|
|---0-0-0-0-0-0-0-0-0-0-|---1-1-1---1-1-1--|
|---1-1-1-1-1-1-1-1-1-1-|---2-2-2---2-2-2--|
|-----------------------|-----------3-3----|
|-----------------------|------------------|
|-----------------------|------------------|


      F         Am       F          G
   E  E E E E E E E   E.   S E E E.   S E E
|-------------------|-----------------------|
|-------------------|-----------------------|
|-------------------|------------0----0---0-|
|-------------------|-3----3---3--------0---|
|--2--0-3-3-0-2-2-0-|--------3--------------|
|-------------------|-----------------------|
|
| +E  E E E E E E E   E  E   E E E  E   E E
|-(0)-----------0-0-|-----------------------|
|-(1)-1-1-1-1-1-1-1-|----1---1-1----3---3-3-|
|-(2)-2-2-2-2-2-2-2-|----2---2-2----4---4-4-|
|-----3-3-3-3-3-----|----3---3-3----5---5-5-|
|-------------------|-----------------------|
|-------------------|-----------------------|


    C                     Am
  W                       Q.         E +E  Q   E
|-----------------------|--------------------------|
|-----------------------|--------------------------|
|-----------------------|--------------------------|
|-2---------------------|-2------------------------|
|-----------------------|------------3-(3)-0-------|
|-----------------------|----------------------1---|
|
| E S S E E S S S S E E   S  S S S E E  Q    Q
|-----------------------|-0--0-0-0-0----0----0-----|
|---1-1-1-1-1-1-1-1-1-1-|-1--1-1-1-1----1----1-----|
|---0-0-0-0-0-0-0-0-0-0-|-2--2-2-2-2----2----2-----|
|---2-2-2-2-2-2-2-2-2-2-|--------------------------|
|-----------------------|--------------------------|
|-----------------------|--------------------------|


  E        F         Am                       E        F
  Q     Q  E E E E   Q.         E +E  Q   E   Q     Q  E E E E
|------------------|------------------------|------------------|
|------------------|------------------------|------------------|
|------------------|------------------------|------------------|
|------------------|-2----------------------|------------------|
|-------2----3---3-|------------3-(3)-0-----|-------2----3---3-|
|-0--------1---1---|----------------------1-|-0--------1---1---|
|
| S S E Q  E E E E   S  S S S E E  Q    Q     S S E Q  E E E E
|-0-0-0-0----------|-0--0-0-0-0----0----0---|-0-0-0-0----------|
|-0-0-0-0--1-1-1-1-|-1--1-1-1-1----1----1---|-0-0-0-0--1-1-1-1-|
|-1-1-1-1--2-2-2-2-|-2--2-2-2-2----2----2---|-1-1-1-1--2-2-2-2-|
|----------3-3-3-3-|------------------------|----------3-3-3-3-|
|------------------|------------------------|------------------|
|------------------|------------------------|------------------|


  Am                       E        F         Am
  Q.         E +E  Q   E   Q     Q  E E E E   W
|------------------------|------------------|-------------------------|
|------------------------|------------------|-------------------------|
|------------------------|------------------|-------------------------|
|-2----------------------|------------------|-------------------------|
|------------3-(3)-0-----|-------2----3---3-|-0-----------------------|
|----------------------1-|-0--------1---1---|-------------------------|
|
| S  S S S E E  Q    Q     S S E Q  E E E E   S S S S E E S S S S E E
|-0--0-0-0-0----0----0---|-0-0-0-0----------|-0-0-0-0-0-0-0-0-0-0-0-0-|
|-1--1-1-1-1----1----1---|-0-0-0-0--1-1-1-1-|-1-1-1-1-1-1-1-1-1-1-1-1-|
|-2--2-2-2-2----2----2---|-1-1-1-1--2-2-2-2-|-2-2-2-2-2-2-2-2-2-2-2-2-|
|------------------------|----------3-3-3-3-|-------------------------|
|------------------------|------------------|-------------------------|
|------------------------|------------------|-------------------------|


  +W
|---------------------------|
|---------------------------|
|---------------------------|
|---------------------------|
|-(0)-----------------------|
|---------------------------|
|
|  S  S S S E E S S S S E E
|--0--0-0-0-0-0-0-0-0-0-0-0-|
|--1--1-1-1-1-1-1-1-1-1-1-1-|
|--2--2-2-2-2-2-2-2-2-2-2-2-|
|---------------------------|
|---------------------------|
|---------------------------|


              F             Am          F
  S S S S E E S S S S E E   S S S S E E S S S S E E
|-0-0-0-0-0-0-1-1-1-1-1-1-|-0-0-0-0-0-0-1-1-1-1-1-1--*|
|-1-1-1-1-1-1-1-1-1-1-1-1-|-1-1-1-1-1-1-1-1-1-1-1-1--*|
|-2-2-2-2-2-2-2-2-2-2-2-2-|-2-2-2-2-2-2-2-2-2-2-2-2--*|
|-------------------------|--------------------------*|
|-------------------------|--------------------------*|
|-------------------------|--------------------------*|
|
| S S S S E E S S S S E E   S S S S E E S S S S E E
|-0-0-0-0-0-0-------------|-0-0-0-0-0-0--------------*|
|-1-1-1-1-1-1-1-1-1-1-1-1-|-1-1-1-1-1-1-1-1-1-1-1-1--*|
|-2-2-2-2-2-2-2-2-2-2-2-2-|-2-2-2-2-2-2-2-2-2-2-2-2--*|
|-------------3-3-3-3-3-3-|-------------3-3-3-3-3-3--*|
|-------------------------|--------------------------*|
|-------------------------|--------------------------*|


Duration Legend
---------------
W - whole; H - half; Q - quarter; E - 8th; S - 16th; T - 32nd; X - 64th; a - acciaccatura
+ - note tied to previous; . - note dotted; .. - note double dotted
Uncapitalized letters represent notes that are staccato (1/2 duration)
Irregular groupings are notated above the duration line
Duration letters will always appear directly above the note/fret number it represents the
duration for.  Duration letters with no fret number below them represent rests.  Multi-
bar rests are notated in the form Wxn, where n is the number of bars to rest for.  Low
melody durations appear below the staff

Tablature Legend
----------------
 h   - hammer-on
 p   - pull-off
 b   - bend
 pb  - pre-bend
 r   - bend release (if no number after the r, then release immediately)
 /\  - slide into or out of (from/to "nowhere")
 s   - legato slide
 S   - shift slide
  - natural harmonic
[n]  - artificial harmonic
n(n) - tapped harmonic
 ~   - vibrato
 tr  - trill
 T   - tap
 TP  - trem. picking
 PM  - palm muting
\n/  - tremolo bar dip; n = amount to dip
 \n  - tremolo bar down
 n/  - tremolo bar up
/n\  - tremolo bar inverted dip
 =   - hold bend; also acts as connecting device for hammers/pulls
 <>  - volume swell (louder/softer)
 x   - on rhythm slash represents muted slash
 o   - on rhythm slash represents single note slash

Misc Legend
-----------
 |  - bar
||  - double bar
||o - repeat start
o|| - repeat end
*|  - double bar (ending)
 :  - bar (freetime)
 $  - Segno
 &  - Coda
Tempo markers -  = BPM(8/16=s8/s16), where s8 = swing 8ths, s16 = swing 16ths
Добавлено: 09.09.2015
Другие материалы по этой песне:

Страница создана 02.06.2013
http://primanota.ru/ventures/jokers-wild-chords.htm
Привет, Гость.
Предлагаем пройти революционный курс по гитаре.
Подарок от PrimaNota.Ru, забирай!