PrimaNota.ru - самый крупный в мире бесплатный архив песенных текстов, аккордов, табулатур и нот


Ventures - Honky Tonk - таба, бас-таба, видео

Регистрация Запомнить меня
Войти через:  Facebook Google Twitter Vk Yandex Mail.ru

Ventures - Honky Tonk - таба, бас-таба, видео

Печатать
Просмотров: 134
HONKY TONK

As recorded by The Ventures
(From the 1960 Album WALK, DON'T RUN)

Music by Bill Doggett, Billy Butler, Shep Shepard & Clifford Scott
Arranged by The Ventures

Transcribed by Slowhand


Gtr I (E A D G B E) - 'Bob Bogle - Electric Guitar '
Gtr II (E A D G B E) - 'Don Wilson - Electric Guitar '


  Q=160
  N.C.
 12/8
  Gtr I
  H.      Q.   Q  E   Q  E Q  E Q  E Q  E
|-------------------|---------------------|
|-------------------|---------------------|
|-------------------|---------------------|
|-------------------|-4----6----7----6----|
|-----------------2-|----2----2----2----0-|
|-------------------|---------------------|


  Q  E Q  E Q  E Q  E   Q  E E E E Q  E E E E   Q   E Q  E +Q.   Q.
|---------------------|-----------------------|------------------------||
|---------------------|-----------------------|------------------------||
|---------------------|-----------------------|------------------------||
|-2----4----5----4----|-----------------------|------------------------||
|----0----0----0------|-2----5p4---2----5p4---|-2---0-1--2-(2)---------||
|-------------------0-|----0-----0----0-----0-|------------------------||
|
| Gtr II
| W                     W                       H.          Q.   E E E
|---------------------|-----------------------|------------------------||
|---------------------|-----------------------|------------------------||
|---------------------|-----------------------|------------------4h5h6-||
|---------------------|-----------------------|------------------------||
|---------------------|-----------------------|------------------------||
|---------------------|-----------------------|------------------------||


  E
  Q   E  Q   E  Q    E  Q   E
|-0---0------0--0----0------0-|
|-0---0------0--0----0------0-|
|-1---1------1--1----1------1-|
|-2---2------2--2----2------2-|
|-----------------------------|
|-----------------------------|
|
| Q.    +Q   E +Q.      Q.
|------------3-(3)/----15-----|
|-5-----(5)-------------------|
|-----------------------------|
|-----------------------------|
|-----------------------------|
|-----------------------------|


  A                            E
  Q  E  Q   E   Q  E Q     E    Q   E  Q   E  Q   E Q  E
|-0--0------0---0--0-------0-|--0---0------0--0---0----0-|
|-2--2------2---2--2-------2-|--0---0------0--0---0----0-|
|-2--2------2---2--2-------2-|--1---1------1--1---1----1-|
|-2--2------2---2--2-------2-|--2---2------2--2---2----2-|
|----------------------------|---------------------------|
|----------------------------|---------------------------|
|
| Q  E +Q   S S Q  E S S Q     +Q   E +Q.    +Q   E Q  E
|----3-(3)--2h3p2--0---------|---------------------------|
|--------------------2h3p2---|-(2)--0-(0)----(0)--2------|
|----------------------------|----------------------1----|
|----------------------------|---------------------------|
|----------------------------|-------------------------2-|
|----------------------------|---------------------------|


                         E6  A
   Q   E Q  E  Q   E Q   E   Q   E  Q   E  Q    E  Q   E
|--0---0----0--0---0-----0-|-0---0------0--0----0------0-|
|--0---0----0--0---0-----2-|-2---2------2--2----2------2-|
|--1---1----1--1---1-----1-|-2---2------2--2----2------2-|
|--2---2----2--2---2-----2-|-2---2------2--2----2------2-|
|--------------------------|-----------------------------|
|--------------------------|-----------------------------|
|
| +Q   E Q  E +Q.    E E E   Q.    +Q   E +Q.      Q.
|------0-------------------|-0-----(0)--3-(3)/----15-----|
|------3----3-(3)----0h1h2-|-----------------------------|
|------4----1-(1)----------|-----------------------------|
|--------------------------|-----------------------------|
|-(2)----------------------|-----------------------------|
|--------------------------|-----------------------------|


  Q  E  Q   E   Q  E Q   E
|-0--0------0---0--0-----0--|
|-2--2------2---2--2-----2--|
|-2--2------2---2--2-----2--|
|-2--2------2---2--2-----2--|
|---------------------------|
|---------------------------|
|
| Q  E +Q   S S Q  E E E E
|----3-(3)--2h3p2--0--------|
|--------------------2h3p2--|
|---------------------------|
|---------------------------|
|---------------------------|
|---------------------------|


  E
   Q   E  Q   E  Q   E Q  E
|--0---0------0--0---0----0-|
|--0---0------0--0---0----0-|
|--1---1------1--1---1----1-|
|--2---2------2--2---2----2-|
|---------------------------|
|---------------------------|
|
| +Q   E +Q.    +Q   E Q  E
|---------------------------|
|-(2)--0-(0)----(0)--2------|
|----------------------1----|
|---------------------------|
|-------------------------2-|
|---------------------------|


                               B
   Q   E Q    E  Q   E Q   E   Q   E Q   E Q   E Q   E
|--0---0------0--0---0-----0-|-2---2-----4-4---4-----4-|
|--0---0------0--0---0-----0-|-4---4-----4-4---4-----4-|
|--1---1------1--1---1-----1-|-4---4-----4-4---4-----4-|
|--2---2------2--2---2-----2-|-4---4-----4-4---4-----4-|
|----------------------------|-------------------------|
|----------------------------|-------------------------|
|
| +Q   E E E +Q    Q   E E E   E E E E E E Q.    E E E
|------0---0-(0)-------------|---7-----6---------------|
|------3---3-(3)-------------|-------------------------|
|------1---1-(1)-------4-6-7-|-8---8-7---7-6-----2-4-5-|
|----------------------------|-------------------------|
|-(2)------------------------|-------------------------|
|----------------------------|-------------------------|


  A                        E                            B7
  Q   E Q   E Q  E Q   E   Q   E Q   E Q   E Q   E   Q  E Q  E Q  E E Q
|-0---0-----0-0--0-----0-|-0---0-----0-0---0-0-----|----4-4--4-4--4-4----||
|-2---2-----2-2--2-----2-|-0---0-----0-0---0-0-----|----4-4--4-4--4-4----||
|-2---2-----2-2--2-----2-|-1---1-----1-1---1-1-----|----4-4--4-4--4-4----||
|-2---2-----2-2--2-----2-|-2---2-----2-2---2-2-----|----4-4--4-4--4-4----||
|------------------------|-------------------------|---------------------||
|------------------------|-------------------------|---------------------||
|
| E E E E E E Q  E E E E   E E E E E E E E E E Q     Q  E Q  E Q  E E Q
|---5-----4------3-------|-------------------------|----2-2--2-2--2-2----||
|------------------5-3---|-5-5-5-3-3-3-2-2-2-1-----|----0-0--0-0--0-0----||
|-6---6-5---5-4--------4-|-4-4-4-4-4-4-2-2-2-1-----|----2-2--2-2--2-2----||
|------------------------|-------------------------|----1-1--1-1--1-1----||
|------------------------|-------------------------|----2-2--2-2--2-2----||
|------------------------|-------------------------|---------------------||


  E                         A
  Q   E Q   E Q   E Q   E   Q   E Q   E Q   E Q  E   Q  E Q  E  Q     E  Q   E
|-0---0-----0-0---0-----0-|-0---0-----0-0---0----0-|-0--0----0--0-----0------0-|
|-0---0-----0-0---0-----0-|-2---2-----2-2---2----2-|-0--0----0--0-----0------0-|
|-1---1-----1-1---1-----1-|-2---2-----2-2---2----2-|-1--1----1--1-----1------1-|
|-2---2-----2-2---2-----2-|-2---2-----2-2---2----2-|-2--2----2--2-----2------2-|
|-------------------------|------------------------|---------------------------|
|-------------------------|------------------------|---------------------------|
|
| Gtr II
| E E E E E E E E E E E E   E E E E E E E E E Q  E   Q  E Q  E +Q     E  Q   E
|-7-7-7-9-9-9-7-7-7-9-9-9-|-7-7-7-9-9-9-7-7-7-9--7-|-7--4-4--4-(4)/--12-12--12-|
|-9-9-9-9-9-9-9-9-9-9-9-9-|-8-8-8-8-8-8-8-8-8-8--9-|-9--5-5--5-(5)/--12-12--12-|
|-------------------------|------------------------|-----------------13-13--13-|
|-------------------------|------------------------|---------------------------|
|-------------------------|------------------------|---------------------------|
|-------------------------|------------------------|---------------------------|


                        E6  A
   Q  E Q  E  Q   E Q   E   Q   E Q   E Q   E Q   E   Q   E Q   E Q   E Q  E
|--0--0----0--0---0-----0-|-0---0-----0-0---0-----0-|-0---0-----0-0---0----0-|
|--0--0----0--0---0-----2-|-2---2-----2-2---2-----2-|-2---2-----2-2---2----2-|
|--1--1----1--1---1-----1-|-2---2-----2-2---2-----2-|-2---2-----2-2---2----2-|
|--2--2----2--2---2-----2-|-2---2-----2-2---2-----2-|-2---2-----2-2---2----2-|
|-------------------------|-------------------------|------------------------|
|-------------------------|-------------------------|------------------------|
|
|  Q  E Q  E +Q.    Q.      E E E E E E E E E E E E   E E E E E E E E E Q  E
|-12--7----7-(7)----------|-7-7-7-9-9-9-7-7-7-9-9-9-|-7-7-7-9-9-9-7-7-7-9--7-|
|-12--9-9--7-(7)----------|-9-9-9-9-9-9-9-9-9-9-9-9-|-8-8-8-8-8-8-8-8-8-8--9-|
|-13--9-8--7-(7)----------|-------------------------|------------------------|
|-------------------------|-------------------------|------------------------|
|-------------------------|-------------------------|------------------------|
|-------------------------|-------------------------|------------------------|


  E                                              B
  Q  E Q  E Q  E Q   E   Q  E Q  E Q   E Q   E   Q   E Q   E Q   E Q   E
|-0--0----0-0--0-----0-|-0--0----0-0---0-----0-|-2---2-----4-4---4-----4-|
|-0--0----0-0--0-----0-|-0--0----0-0---0-----0-|-4---4-----4-4---4-----4-|
|-1--1----1-1--1-----1-|-1--1----1-1---1-----1-|-4---4-----4-4---4-----4-|
|-2--2----2-2--2-----2-|-2--2----2-2---2-----2-|-4---4-----4-4---4-----4-|
|----------------------|-----------------------|-------------------------|
|----------------------|-----------------------|-------------------------|
|
| Q  E Q  E Q  E Q   E   Q  E Q  E Q.    E E E   E E E E E E Q.    E E E
|-7--4-4--4----7-7---9-|-7--4-4--4-------------|---7-----6---------------|
|-9--5-5--5----9-9--10-|-9--5-5--5-------------|-------------------------|
|----------------------|-----------------4-6-7-|-8---8-7---7-6-----2-4-5-|
|----------------------|-----------------------|-------------------------|
|----------------------|-----------------------|-------------------------|
|----------------------|-----------------------|-------------------------|


  A                        E                        B7
  Q   E Q   E Q  E Q   E   Q   E Q   E Q   E Q  E   Q   E Q   E Q   E Q   E
|-0---0-----0-0--0-----0-|-0---0-----0-0---0-0----|-4---4-4---4-4---4-4-----||
|-2---2-----2-2--2-----2-|-0---0-----0-0---0-0----|-4---4-4---4-4---4-4-----||
|-2---2-----2-2--2-----2-|-1---1-----1-1---1-1----|-4---4-4---4-4---4-4-----||
|-2---2-----2-2--2-----2-|-2---2-----2-2---2-2----|-4---4-4---4-4---4-4-----||
|------------------------|------------------------|-------------------------||
|------------------------|------------------------|-------------------------||
|
| E E E E E E Q  E E E E   E E E E E E E E E Q  E   E E E E E E E E E E E E
|---5-----4------3-------|------------------------|-2-2-2-2-2-2-2-2-2-2-2-2-||
|------------------5-3---|-5-5-5-3-3-3-2-2-2-1----|-0-0-0-0-0-0-0-0-0-0-0-0-||
|-6---6-5---5-4--------4-|-4-4-4-4-4-4-2-2-2-1----|-2-2-2-2-2-2-2-2-2-2-2-2-||
|------------------------|------------------------|-1-1-1-1-1-1-1-1-1-1-1-1-||
|------------------------|----------------------0-|-2-2-2-2-2-2-2-2-2-2-2-2-||
|------------------------|------------------------|-------------------------||


  E                     A                      E
  Q  E Q  E Q  E Q  E   Q  E Q  E  Q  E Q  E   Q  E Q  E Q  E Q  E
|-0--0----0-0--0----0-|-0--0----0--0--0----0-|-0--0----0-0--0----0-|
|-0--0----0-0--0----0-|-2--2----2--2--2----2-|-0--0----0-0--0----0-|
|-1--1----1-1--1----1-|-2--2----2--2--2----2-|-1--1----1-1--1----1-|
|-2--2----2-2--2----2-|-2--2----2--2--2----2-|-2--2----2-2--2----2-|
|---------------------|----------------------|---------------------|
|---------------------|----------------------|---------------------|
|
| Q  E Q  E Q  E Q  E   Q  E Q  E  Q  E Q  E   Q  E Q  E Q  E Q  E
|---------------------|----------------------|---------------------|
|---------------------|----------------------|---------------------|
|---------------------|----------------------|---------------------|
|-----------0--0------|-2--2-4--4/-5--5-4--4-|---------------------|
|-2--2-4--4-5--5-4--4-|-4--4-5--5/-7--7-5--5-|-2--2-4--4-5--5-7--7-|
|-4--4-5--5-7--7-5--5-|----------------------|-4--4-5--5-7--7-9--9-|


   E E  E E E E E E E E E E
|--0-0--0-0-0-0-0-0-0-0-0-0-|
|--0-0--0-0-0-0-3-3-3-3-3-3-|
|--1-1--1-1-1-1-1-1-1-1-1-1-|
|--2-2--2-2-2-2-2-2-2-2-2-2-|
|---------------------------|
|---------------------------|
|
|  Q    E Q   E Q   E Q   E
|---------------------------|
|---------------------------|
|---------------------------|
|---------------------------|
|--9----9-7---7-5---5-4---4-|
|-10---10-9---9-7---7-5---5-|


  A
  Q   E Q   E Q   E Q   E    Q    E Q   E Q   E Q   E
|-0---0-----0-0---0-----0-|--0----0-----0-0---0-----0-|
|-2---2-----2-2---2-----2-|--2----2-----2-2---2-----2-|
|-2---2-----2-2---2-----2-|--2----2-----2-2---2-----2-|
|-2---2-----2-2---2-----2-|--2----2-----2-2---2-----2-|
|-------------------------|---------------------------|
|-------------------------|---------------------------|
|
| E E E E E E E E E E E E    E E  E E E E E E E E E E
|-------------------------|---------------------------|
|-------------------------|---------------------------|
|-------------------------|---------------------------|
|---2-----4-----5-----7---|----9------7-----5-----4---|
|-4---4-5---5-7---7-9---9-|-10---10-9---9-7---7-5---5-|
|-------------------------|---------------------------|


  E                                             B
  Q  E Q  E Q  E Q  E    Q   E Q  E Q  E Q  E   Q  E Q  E Q  E Q  E
|-0--0----0-0--0----0-|--0---0----0-0--0----0-|-2--2----4-4--4----4-|
|-0--0----0-0--0----0-|--0---0----0-0--0----0-|-4--4----4-4--4----4-|
|-1--1----1-1--1----1-|--1---1----1-1--1----1-|-4--4----4-4--4----4-|
|-2--2----2-2--2----2-|--2---2----2-2--2----2-|-4--4----4-4--4----4-|
|---------------------|-----------------------|---------------------|
|---------------------|-----------------------|---------------------|
|
| Q  E Q  E Q  E Q  E    Q   E Q  E Q  E Q  E   Q  E Q  E Q  E Q  E
|---------------------|-----------------------|---------------------|
|---------------------|-----------------------|---------------------|
|---------------------|-----------------------|---------------------|
|---------------------|-----------------------|-4--4-6--6-7--7-6--6-|
|-2--2-4--4-5--5-7--7-|--9---9-7--7-5--5-5----|-6--6-7--7-9--9-7--7-|
|-4--4-5--5-7--7-9--9-|-10--10-9--9-7--7-7--5-|---------------------|


  A                     E                        B7
  Q  E Q  E Q  E Q  E   Q  E Q  E Q  E E Q    Q  E Q  E Q  E E Q
|-0--0----0-0--0----0-|-0--0----0-0--0-0----|----4-4--4-4--4-4----||
|-2--2----2-2--2----2-|-0--0----0-0--0-0----|----4-4--4-4--4-4----||
|-2--2----2-2--2----2-|-1--1----1-1--1-1----|----4-4--4-4--4-4----||
|-2--2----2-2--2----2-|-2--2----2-2--2-2----|----4-4--4-4--4-4----||
|---------------------|---------------------|---------------------||
|---------------------|---------------------|---------------------||
|
| Q  E Q  E Q  E Q  E   Q  E Q  E Q  E E Q    Q  E Q  E Q  E E Q
|---------------------|---------------------|----2-2--2-2--2-2----||
|---------------------|---------------------|----0-0--0-0--0-0----||
|---------------------|---------------------|----2-2--2-2--2-2----||
|-2--2-4--4-5--5-4--4-|---------------------|----1-1--1-1--1-1----||
|-4--4-5--5-7--7-5--5-|-2--2-4--4-5--5-7----|----2-2--2-2--2-2----||
|---------------------|-4--4-5--5-7--7-9----|---------------------||


  E
  E Q   Q.     Q   E Q   E
|-0----------------0-0-----|
|-0----------------0-0-----|
|-1----------------1-1-----|
|-2----------------2-2-----|
|--------------------------|
|--------------------------|
|
| E E E E  E E E Q   Q.
|-4-4-4-4--4---4-----------|
|-5-5-5-5--3-2-5-----------|
|--------------------------|
|--------------------------|
|--------------------------|
|--------------------------|


  A7                         E
  E Q   Q.     Q   E Q   E   E Q   Q.     E Q   Q.
|-3----------------3-3-----|-0------------0------------|
|-2----------------2-2-----|-0------------0------------|
|-2----------------2-2-----|-1------------1------------|
|-2----------------2-2-----|-2------------2------------|
|--------------------------|---------------------------|
|--------------------------|---------------------------|
|
| E E E E  E E E Q   Q.      E E E E  E E E E E E  E E
|-3-3-4-4------3-----------|-4-4-4-4--4---4-4-4-4--4---|
|-5-5-5-5--2-0-5-----------|-5-5-5-5--2-0-5-5-5-5--2-0-|
|--------------------------|---------------------------|
|--------------------------|---------------------------|
|--------------------------|---------------------------|
|--------------------------|---------------------------|


              E7             A
  E E E E E E E E E E  E E    Q      E   Q    E   Q    E   Q   E
|-0-0-0-0-0-0-0-0-0-0--0-0-|--0------0--------0---0----0-------0-|
|-0-0-0-0-0-0-3-3-3-3--3-3-|--2------2--------2---2----2-------2-|
|-1-1-1-1-1-1-1-1-1-1--1-1-|--2------2--------2---2----2-------2-|
|-2-2-2-2-2-2-2-2-2-2--2-2-|--2------2--------2---2----2-------2-|
|--------------------------|-------------------------------------|
|--------------------------|-------------------------------------|
|
| E E E E E E E E E Q.        Q      E  +Q    E  +Q    E  +Q.
|-4-4-4-4-4-4-7-7-7-7------|-14b16--14-(14)--12-(12)-------------|
|-5-5-5-5-5-5-7-7-7--------|--------------------------14-(14)----|
|-------------7-7-7--------|-------------------------------------|
|--------------------------|-------------------------------------|
|--------------------------|-------------------------------------|
|--------------------------|-------------------------------------|


    Q    E  Q   E  Q   E  Q     E
|---0----0------0--0---0--------0-|
|---2----2------2--2---2--------2-|
|---2----2------2--2---2--------2-|
|---2----2------2--2---2--------2-|
|---------------------------------|
|---------------------------------|
|
|  +Q    E  Q   E  E Q    E  E  E
|---------------------------------|
|-(14)--12------------------------|
|----------14--12-----------12-14-|
|-----------------14-----14-------|
|---------------------------------|
|---------------------------------|


  E
   Q     E  Q     E  Q     E  Q        E
|--0-----0--------0--0-----0-----------0-|
|--0-----0--------0--0-----0-----------0-|
|--1-----1--------1--1-----1-----------1-|
|--2-----2--------2--2-----2-----------2-|
|----------------------------------------|
|----------------------------------------|
|
|  E  E  E  E  E  E  E  E  E  E      Q
|-------12-14-12-14-12-14-12-14pb15r14---|
|-12-14----------------------------------|
|----------------------------------------|
|----------------------------------------|
|----------------------------------------|
|----------------------------------------|


                                    B
   Q   E      Q   E   Q   E Q   E   Q   E Q   E Q   E Q   E
|--0---0----------0---0---0-----0-|-2---2-----4-4---4-----4-|
|--0---0----------0---0---0-----0-|-4---4-----4-4---4-----4-|
|--1---1----------1---1---1-----1-|-4---4-----4-4---4-----4-|
|--2---2----------2---2---2-----2-|-4---4-----4-4---4-----4-|
|---------------------------------|-------------------------|
|---------------------------------|-------------------------|
|
|  Q   E      Q   E  +Q.    E E E   E E E E E E Q.    E E E
|-12------------------------------|---7-----6---------------|
|-----14pb15r14--12-(12)----------|-------------------------|
|---------------------------4-6-7-|-8---8-7---7-6-----2-4-5-|
|---------------------------------|-------------------------|
|---------------------------------|-------------------------|
|---------------------------------|-------------------------|


  A                         E                             B7
  Q   E Q   E Q   E Q   E   Q   E  Q   E Q   E Q   E   Q  E  Q   E E Q  Q.
|-0---0-----0-0---0-----0-|-0---0------0-0---0-0-----|----4--4---4-4---------||
|-2---2-----2-2---2-----2-|-0---0------0-0---0-0-----|----4--4---4-4---------||
|-2---2-----2-2---2-----2-|-1---1------1-1---1-1-----|----4--4---4-4---------||
|-2---2-----2-2---2-----2-|-2---2------2-2---2-2-----|----4--4---4-4---------||
|-------------------------|--------------------------|-----------------------||
|-------------------------|--------------------------|-----------------------||
|
| E E E E E E Q.    Q.      E E E +Q   E Q.    E Q     Q  E +Q   E E Q  Q.
|---5-----4---------3-----|------------0-------------|----2-(2)--2-2---------||
|-------------------5-----|-----3-(3)--0-3-----2-1---|----0-(0)--0-0---------||
|-6---6-5---5-4-----------|--------------------2-2---|----2-(2)--2-2---------||
|-------------------------|--------------------------|----1-(1)--1-1---------||
|-------------------------|--------------------------|----2-(2)--2-2---------||
|-------------------------|--------------------------|-----------------------||


  Q   E Q   E Q   E Q   E   Q   E Q   E Q   E Q   E   Q   E Q   E Q   E Q   E
|-0---0-----0-0---0-----0-|-0---0-----0-0---0-----0-|-0---0-----0-0---0-----0-|
|-0---0-----0-0---0-----0-|-2---2-----2-2---2-----2-|-0---0-----0-0---0-----0-|
|-1---1-----1-1---1-----1-|-2---2-----2-2---2-----2-|-1---1-----1-1---1-----1-|
|-2---2-----2-2---2-----2-|-2---2-----2-2---2-----2-|-2---2-----2-2---2-----2-|
|-------------------------|-------------------------|-------------------------|
|-------------------------|-------------------------|-------------------------|
|
| E E E E E E E E E E E E   E E E E E E E E E E E E   E E E E E E E E E E E E
|-4-0---4-0---4-0---4-0---|-3-0---3-0---3-0---3-0---|-4-0---4-0---4-0---4-0---|
|-----2-----2-----2-----2-|-----2-----2-----2-----2-|-----2-----2-----2-----2-|
|-------------------------|-------------------------|-------------------------|
|-------------------------|-------------------------|-------------------------|
|-------------------------|-------------------------|-------------------------|
|-------------------------|-------------------------|-------------------------|


              E7            A
  E E E E E E E E E E E E   Q   E  Q   E Q   E Q      E
|-0-0-0-0-0-0-0-0-0-0-0-0-|-0---0------0-0---0--------0-|
|-0-0-0-0-0-0-3-3-3-3-3-3-|-2---2------2-2---2--------2-|
|-1-1-1-1-1-1-1-1-1-1-1-1-|-2---2------2-2---2--------2-|
|-2-2-2-2-2-2-2-2-2-2-2-2-|-2---2------2-2---2--------2-|
|-------------------------|-----------------------------|
|-------------------------|-----------------------------|
|
| E E E E E E E E E E E E   E E E +Q.    E E E E E    E
|-9-7-4-0-------8-7-5-8-7-|-5---0-(0)------8-7-5--------|
|-----5---4-3-0-------8-7-|-5---2-(2)------------7pb8r7-|
|-------------------------|---2-------------------------|
|-------------------------|-----------------------------|
|-------------------------|-----------------------------|
|-------------------------|-----------------------------|


  Q   E  Q   E Q      E Q      E
|-0---0------0-0------0--------0-|
|-2---2------2-2------2--------2-|
|-2---2------2-2------2--------2-|
|-2---2------2-2------2--------2-|
|--------------------------------|
|--------------------------------|
|
| E E E +Q.    E E    E E E    E
|--------------------------------|
|-5--------------7pb8r7-5--------|
|-----6-(6)---------------6pb7r6-|
|---7----------------------------|
|--------------------------------|
|--------------------------------|


  E
  Q   E  Q   E  Q    E Q   E
|-0---0------0--0----0-----0-|
|-0---0------0--0----0-----0-|
|-1---1------1--1----1-----1-|
|-2---2------2--2----2-----2-|
|----------------------------|
|----------------------------|
|
| E E E +Q.    +E  E E E E E
|----------------------------|
|-0--------------------------|
|-----1-(1)----(1)-----------|
|---2------------------2-2-4-|
|------------------2-4-------|
|----------------------------|


                            B
  Q   E Q   E Q   E Q   E   Q   E Q   E Q   E Q   E
|-0---0-----0-0---0-----0-|-2---2-----4-4---4-----4-|
|-0---0-----0-0---0-----0-|-4---4-----4-4---4-----4-|
|-1---1-----1-1---1-----1-|-4---4-----4-4---4-----4-|
|-2---2-----2-2---2-----2-|-4---4-----4-4---4-----4-|
|-------------------------|-------------------------|
|-------------------------|-------------------------|
|
| E E E E E E Q.    E E E   E E E E E E Q.    E E E
|-------------------------|---7-----6---------------|
|-------------------0-2-3-|-------------------------|
|-------------------------|-8---8-7---7-6-----2-4-5-|
|-2-2-2-2-2-2-6/----------|-------------------------|
|-------------------------|-------------------------|
|-------------------------|-------------------------|


  A                                                    B7
  Q   E Q   E Q  E Q   E   Q   E Q   E Q   E Q  E   Q  E Q  E Q  E Q  E
|-0---0-----0-0--0-----0-|-0---0-----0-0---0-0----|----4-4--4-4--4-4----||
|-2---2-----2-2--2-----2-|-0---0-----0-0---0-0----|----4-4--4-4--4-4----||
|-2---2-----2-2--2-----2-|-1---1-----1-1---1-1----|----4-4--4-4--4-4----||
|-2---2-----2-2--2-----2-|-2---2-----2-2---2-2----|----4-4--4-4--4-4----||
|------------------------|------------------------|---------------------||
|------------------------|------------------------|---------------------||
|
| E E E E E E Q  E E E E   E E E E E E E E E Q  E   Q  E Q  E Q  E Q  E
|---5-----4------3-------|------------------------|----2-2--2-2--2-2----||
|------------------5-3---|-5-5-5-3-3-3-2-2-2-1----|----0-0--0-0--0-0----||
|-6---6-5---5-4--------4-|-4-4-4-4-4-4-2-2-2-1----|----2-2--2-2--2-2----||
|------------------------|------------------------|----1-1--1-1--1-1----||
|------------------------|------------------------|----2-2--2-2--2-2----||
|------------------------|------------------------|---------------------||


  E
  Q.    Q.    Q.     Q.
|---------------------------|
|---------------------------|
|---------------------------|
|-------0------------0------|
|-2-----------2-------------|
|---------------------------|
|
| Q   E E E E E  E E E  E E
|-----------0------0------0-|
|-------------3------3------|
|-------2s4------4------4---|
|-2---2---------------------|
|-2-------------------------|
|---------------------------|


  A                           E
  Q.    Q.    Q.     Q.       Q.    Q.    Q.     Q.
|---------------------------|---------------------------|
|---------------------------|---------------------------|
|-------0------------0------|---------------------------|
|-2-----------2-------------|-------0------------0------|
|---------------------------|-2-----------2-------------|
|---------------------------|---------------------------|
|
| Q   E E E E E  E E E  E E   Q   E E E E E  E E E  E E
|---------------------------|-----------0------0------0-|
|---------------------------|-------------3------3------|
|---------------------------|-------2s4------4------4---|
|-2---------7-5----7-5------|-2---2---------------------|
|-0---0-5s7------7------7-4-|-2-------------------------|
|---------------------------|---------------------------|


  Q.    Q.    Q.     Q.
|---------------------------|
|---------------------------|
|---------------------------|
|-------0------------0------|
|-2-----------2-------------|
|---------------------------|
|
| Q   E E E E E  E E E  E E
|-----------0------0------0-|
|-------------3------3------|
|-------2s4------4------4---|
|-2---2---------------------|
|-2-------------------------|
|---------------------------|


  A
  Q.    Q.    Q.     Q.       Q.    Q.    Q.    Q.
|---------------------------|--------------------------|
|---------------------------|--------------------------|
|-------0------------0------|-------0-----0-----0------|
|-2-----------2-------------|-2------------------------|
|---------------------------|--------------------------|
|---------------------------|--------------------------|
|
| Q   E E E E E  E E E  E E   Q   E E E E Q   E E  E E
|---------------------------|--------------------------|
|---------------------------|--------------------------|
|---------------------------|--------------------------|
|-2---------7-5--7-7-5------|-2---------7-5---5-7--5-7-|
|-0---0-5s7-------------7-4-|-0---0-5s7----------------|
|---------------------------|--------------------------|


  E
  Q.    Q.    Q.     Q.
|---------------------------|
|---------------------------|
|---------------------------|
|-------0------------0------|
|-2-----------2-------------|
|---------------------------|
|
| Q   E E E E E  E E E  E E
|-----------0------0------0-|
|-------------3------3------|
|-------2s4------4------4---|
|-2---2---------------------|
|-2-------------------------|
|---------------------------|


  Q.    Q.    Q.     Q.       Q.    Q.    Q.     Q.
|---------------------------|---------------------------|
|---------------------------|---------------------------|
|---------------------------|-------2-----2------1------|
|-------0-----0-------------|-4-------------------------|
|-2------------------4------|---------------------------|
|---------------------------|---------------------------|
|
| Q   E E E E E  E E E  E E   Q   E E E E E  E E E  E E
|-----------0------0------0-|---------------------------|
|-------------3------3------|---------------------------|
|-------2s4------4------4---|---------------------------|
|-2---2---------------------|-4---------9-7----9-7--9---|
|-2-------------------------|-2---2-7s9------9--------6-|
|---------------------------|---------------------------|


  A
  Q.    Q.    Q.     Q.
|---------------------------|
|---------------------------|
|-------0-----0-------------|
|-2------------------4------|
|---------------------------|
|---------------------------|
|
| Q   E E E E E  E E E  E E
|---------------------------|
|---------------------------|
|---------------------------|
|-2---------7-5----7-5------|
|-0---0-5s7------7------7-4-|
|---------------------------|


  E                               D  Eb   E
  Q.    Q.    Q.     Q.       E E  E  Q.       H.
|---------------------------|------------------------*|
|---------------------------|------------------------*|
|---------------------------|------------------------*|
|-------0------------0------|------------------------*|
|-2-----------2-------------|-2----------------------*|
|---------------------------|------------------------*|
|
| Q   E E E E E  E E E  E E   Q    E  Q    E  +H.
|-----------0------0------0-|-----10-11---12-(12)----*|
|-------------3------3------|-----10-11---12-(12)----*|
|-------2s4------4------4---|-----11-12---13-(13)----*|
|-2---2---------------------|------------------------*|
|-2-------------------------|------------------------*|
|---------------------------|------------------------*|


Duration Legend
---------------
W - whole; H - half; Q - quarter; E - 8th; S - 16th; T - 32nd; X - 64th; a - acciaccatura
+ - note tied to previous; . - note dotted; .. - note double dotted
Uncapitalized letters represent notes that are staccato (1/2 duration)
Irregular groupings are notated above the duration line
Duration letters will always appear directly above the note/fret number it represents the
duration for.  Duration letters with no fret number below them represent rests.  Multi-
bar rests are notated in the form Wxn, where n is the number of bars to rest for.  Low
melody durations appear below the staff

Tablature Legend
----------------
 h   - hammer-on
 p   - pull-off
 b   - bend
 pb  - pre-bend
 r   - bend release (if no number after the r, then release immediately)
 /\  - slide into or out of (from/to "nowhere")
 s   - legato slide
 S   - shift slide
  - natural harmonic
[n]  - artificial harmonic
n(n) - tapped harmonic
 ~   - vibrato
 tr  - trill
 T   - tap
 TP  - trem. picking
 PM  - palm muting
\n/  - tremolo bar dip; n = amount to dip
 \n  - tremolo bar down
 n/  - tremolo bar up
/n\  - tremolo bar inverted dip
 =   - hold bend; also acts as connecting device for hammers/pulls
 <>  - volume swell (louder/softer)
 x   - on rhythm slash represents muted slash
 o   - on rhythm slash represents single note slash

Misc Legend
-----------
 |  - bar
||  - double bar
||o - repeat start
o|| - repeat end
*|  - double bar (ending)
 :  - bar (freetime)
 $  - Segno
 &  - Coda
Tempo markers -  = BPM(8/16=s8/s16), where s8 = swing 8ths, s16 = swing 16ths
Добавлено: 09.09.2015
Другие материалы по этой песне:

Страница создана 06.11.2013
http://primanota.ru/ventures/honky-tonk-chords.htm
Привет, Гость.
Предлагаем пройти революционный курс по гитаре.
Подарок от PrimaNota.Ru, забирай!