PrimaNota.ru - самый крупный в мире бесплатный архив песенных текстов, аккордов, табулатур и нот


Ventures - Gringo - бас-таба, видео

Регистрация Запомнить меня
Войти через:  Facebook Google Twitter Vk Yandex Mail.ru

Ventures - Gringo - бас-таба, видео

Печатать
Просмотров: 137
Уроки эстрадного вокала в Санкт-Петербурге
Ventures_Gringo

Basstab by Jan Bjorklund, Finland
 jani_bjorklund@yahoo.se>
You are welcome to request for basstabs!
Fingering and positions as suggested by TablEdit,
please use common sense!

TablEdited by Jan Bjorklund
Tuning : E A D G 	Time Signature: 4/4

  |       |       |       |          |       |       |
      |         
|----------------------------------|----------------------------------|
|-----------------2---2---4---2----|-----------------2---2---4---2----|
|-0---0---4---4--------------------|-0---0---4---4--------------------|
|----------------------------------|----------------------------------|

  |       |       |       |          |       |       |
      |         
|----------------------------------|-2---2----------------------------|
|-----------------2---2---4---4----|---------4---4---2---2------------|
|-0---0---4---4--------------------|-------------------------4---4----|
|----------------------------------|----------------------------------|

  |       |       |       |          |       |       |
      |         
|----------------------------------|-2---2----------------------------|
|-----------------2---2---4---4----|---------4---4---2---2------------|
|-0---0---4---4--------------------|-------------------------4---4----|
|----------------------------------|----------------------------------|

  |       |       |       |          |       |       |
      |         
|----------------------------------|----------------------------------|
|----------------------------------|-2---2----------------------------|
|-----------------2---2---4---4----|---------4---4---2---2------------|
|-0---0---4---4--------------------|-------------------------4---4----|

  |       |       |       |          |       |       |
      |         
|----------------------------------|----------------------------------|
|----------------------------------|-2---2---4---4---2---2------------|
|-----------------2---2---4---4----|-------------------------4---4----|
|-0---0---4---4--------------------|----------------------------------|

  |       |       |       |          |       |       |
      |         
|----------------------------------|-1---1---2---2---4---4---1--------|
|-----------------2---2---4---4----|-----------------------------4----|
|-2---2---4---4--------------------|----------------------------------|
|----------------------------------|----------------------------------|

  |       |       |       |          |       |       |
      |         
|----------------------------------|----------------------------------|
|-2---2----------------------------|-2---2---0---0--------------------|
|---------4---4---0---0---4---4----|-----------------4---4---2---2----|
|----------------------------------|----------------------------------|

  |       |       |       |          |       |       |
      |         
|----------------------------------|-2---2----------------------------|
|-----------------2---2---4---4----|---------4---4---2---2------------|
|-0---0---4---4--------------------|-------------------------4---2----|
|----------------------------------|----------------------------------|

  |       |       |       |          |       |       |
      |         
|----------------------------------|----------------------------------|
|-----------------2---2---4---2----|-----------------2---2---4---2----|
|-0---0---4---4--------------------|-0---0---4---4--------------------|
|----------------------------------|----------------------------------|

  |       |       |       |          |       |       |
      |         
|----------------------------------|-2---2----------------------------|
|-----------------2---2---4---4----|---------4---4---2---2------------|
|-0---0---4---4--------------------|-------------------------4---4----|
|----------------------------------|----------------------------------|

  |       |       |       |          |       |       |
      |         
|----------------------------------|-2---2----------------------------|
|-----------------2---2---4---4----|---------4---4---2---2------------|
|-0---0---4---4--------------------|-------------------------4---4----|
|----------------------------------|----------------------------------|

  |       |       |       |          |       |       |
      |         
|----------------------------------|----------------------------------|
|----------------------------------|-2---2----------------------------|
|-----------------2---2---4---4----|---------4---4---2---2------------|
|-0---0---4---4--------------------|-------------------------4---4----|

  |       |       |       |          |       |       |
      |         
|----------------------------------|----------------------------------|
|----------------------------------|-2---2---4---4---2---2------------|
|-----------------2---2---4---4----|-------------------------4---4----|
|-0---0---4---4--------------------|----------------------------------|

  |       |       |       |          |       |       |
      |         
|----------------------------------|-1---1---2---2---4---4---1--------|
|-----------------2---2---4---4----|-----------------------------4----|
|-2---2---4---4--------------------|----------------------------------|
|----------------------------------|----------------------------------|

  |       |       |       |          |       |       |
      |         
|----------------------------------|----------------------------------|
|-2---2----------------------------|-2---2---0---0--------------------|
|---------4---4---0---0---4---4----|-----------------4---4---2---2----|
|----------------------------------|----------------------------------|

  |       |       |       |          |       |       |
      |         
|----------------------------------|----------------------------------|
|----------------------------------|----------------------------------|
|-0---0---0---0---0---0---0---0----|-3---3---3---3---3---3---3--------|
|----------------------------------|----------------------------------|

  |       |       |       |          |       |       |
      |         
|----------------------------------|----------------------------------|
|-3---3---3---3---3---3---3--------|-------------------------0---0----|
|----------------------------------|-1---1---1---1---4---4------------|
|----------------------------------|----------------------------------|

  |       |       |       |          |       |       |
      |         
|-----------------3---3---5---3----|---------0---0-----------0---0----|
|---------5---5--------------------|-1---1-----------1---1------------|
|-6---6----------------------------|----------------------------------|
|----------------------------------|----------------------------------|

  |       |       |       |          |       |       |
      |         
|-----------------3---3---5---3----|-----------------3---3---5---3----|
|---------5---5--------------------|---------5---5--------------------|
|-6---6----------------------------|-6---6----------------------------|
|----------------------------------|----------------------------------|

  |       |       |       |          |       |       |
      |         
|-----------------3---3---5---3----|-----------------3---3---5---3----|
|---------5---5--------------------|---------5---5--------------------|
|-6---6----------------------------|-6---6----------------------------|
|----------------------------------|----------------------------------|

  |       |       |       |          |       |       |
      |         
|-------------------------0--------|-------------------------0--------|
|-------------0---3---3-------3----|-------------0---3---3-------3----|
|-1---1---4------------------------|-1---1---4------------------------|
|----------------------------------|----------------------------------|

  |       |       |       |          |       |       |
      |         
|-------------------------0--------|-------------------------0--------|
|-------------0---3---3-------3----|-------------0---3---3-------3----|
|-1---1---4------------------------|-1---1---4------------------------|
|----------------------------------|----------------------------------|

  |       |       |       |          |       |       |
      |         
|-3---3---0---0--------------------|-------------------------0--------|
|-----------------3---3---0---0----|-------------0---3---3-------3----|
|----------------------------------|-1---1---4------------------------|
|----------------------------------|----------------------------------|

  |       |       |       |          |       |       |
      |         
|-------------------------0--------|-3---3---1---1---0---0------------|
|-------------0---3---3-------3----|-------------------------3---3----|
|-1---1---4------------------------|----------------------------------|
|----------------------------------|----------------------------------|

  |       |       |       |          |       |       |
      |         
|----------------------------------|-1---1---1---1-------1---1--------|
|-1---1---1---1-------1---1--------|----------------------------------|
|----------------------------------|----------------------------------|
|----------------------------------|----------------------------------|

  |       |       |       |          |       |       |
      |         
|----------------------------------|----------------------------------|
|----------------------------------|-2---2---2---2-------2---2--------|
|-2---2---2---2-------2---2--------|----------------------------------|
|----------------------------------|----------------------------------|

  |       |       |       |          |       |       |
      |         
|----------------------------------|----------------------------------|
|-----------------2---2---4---2----|-----------------2---2---4---2----|
|-0---0---4---4--------------------|-0---0---4---4--------------------|
|----------------------------------|----------------------------------|

  |       |       |       |          |       |       |
      |         
|----------------------------------|-2---2----------------------------|
|-----------------2---2---4---4----|---------4---4---2---2------------|
|-0---0---4---4--------------------|-------------------------4---4----|
|----------------------------------|----------------------------------|

  |       |       |       |          |       |       |
      |         
|----------------------------------|-2---2----------------------------|
|-----------------2---2---4---4----|---------4---4---2---2------------|
|-0---0---4---4--------------------|-------------------------4---4----|
|----------------------------------|----------------------------------|

  |       |       |       |          |       |       |
      |         
|----------------------------------|----------------------------------|
|----------------------------------|-2---2----------------------------|
|-----------------2---2---4---4----|---------4---4---2---2------------|
|-0---0---4---4--------------------|-------------------------4---4----|

  |       |       |       |          |       |       |
      |         
|----------------------------------|----------------------------------|
|----------------------------------|-2---2---4---4---2---2------------|
|-----------------2---2---4---4----|-------------------------4---4----|
|-0---0---4---4--------------------|----------------------------------|

  |       |       |       |          |       |       |
      |         
|----------------------------------|-1---1---2---2---4---4---1--------|
|-----------------2---2---4---4----|-----------------------------4----|
|-2---2---4---4--------------------|----------------------------------|
|----------------------------------|----------------------------------|

  |       |       |       |          |       |       |
      |         
|----------------------------------|----------------------------------|
|-2---2----------------------------|-2---2---0---0--------------------|
|---------4---4---0---0---4---4----|-----------------4---4---2---2----|
|----------------------------------|----------------------------------|

  |       |       |       |          |       |       |
      |         
|----------------------------------|----------------------------------|
|----------------------------------|----------------------------------|
|-0---0---0---0---0---0---0---0----|-0---0---0---0---2---2---4---4----|
|----------------------------------|----------------------------------|

  |       |       |       |          |       |       |
      |         
|-----------------2---2---4---2----|-----------------2---2---4---2----|
|---------3---3--------------------|---------3---3--------------------|
|-5---5----------------------------|-5---5----------------------------|
|----------------------------------|----------------------------------|

  |       |       |       |          |       |       |
      |         
|----------------------------------|----------------------------------|
|-----------------2---2---4---2----|-----------------2---2------------|
|-0---0---4---4--------------------|-0---0---4---4-----------4---4----|
|----------------------------------|----------------------------------|

  |       |       |       |          |       |       |
      |         
|----------------------------------|---------0---0---2---2---0--------|
|-0---0---3---3---3---3---3---3----|-3---3-----------------------2----|
|----------------------------------|----------------------------------|
|----------------------------------|----------------------------------|

  |       |       |       |          |       |       |
      |         
|----------------------------------|----------------------------------|
|-------------------------2---2----|-------------------------2---2----|
|-0---0---4---4---4---4------------|-0---0---4---4---4---4------------|
|----------------------------------|----------------------------------|

  |       |       |       |          |       |       |
      |         
|-----------------2---2---4---2----|-----------------2---2---4---2----|
|---------4---4--------------------|---------4---4--------------------|
|-5---5----------------------------|-5---5----------------------------|
|----------------------------------|----------------------------------|

  |       |       |       |          |       |       |
      |         
|----------------------------------|-2---2----------------------------|
|-----------------2---2---4---4----|---------4---4---2---2------------|
|-0---0---4---4--------------------|-------------------------4---4----|
|----------------------------------|----------------------------------|

  |       |       |       |          |       |       |
      |         
|-------------------------1---1----|-4---4---2---2---1---1------------|
|---------1---1---4---4------------|-------------------------4---4----|
|-2---2----------------------------|----------------------------------|
|----------------------------------|----------------------------------|

  |       |       |       |          |       |       |
      |         
|----------------------------------|----------------------------------|
|-2---2---2---2---2---2---2---2----|-2---2---0---0--------------------|
|----------------------------------|-----------------4---4---2---2----|
|----------------------------------|----------------------------------|

  |       |       |       |          |       |       |
      |         
|----------------------------------|----------------------------------|
|-----------------2---2---4---2----|-----------------2---2---4---2----|
|-0---0---4---4--------------------|-0---0---4---4--------------------|
|----------------------------------|----------------------------------|

  |       |       |       |          |       |       |
      |         
|----------------------------------|----------------------------------|
|-----------------2---2---4---2----|-----------------2---2---4---2----|
|-0---0---4---4--------------------|-0---0---4---4--------------------|
|----------------------------------|----------------------------------|

  |       |       |       |          |       |       |
      |         
|----------------------------------|----------------------------------|
|-----------------2---2---4---2----|-----------------2---2---4---2----|
|-0---0---4---4--------------------|-0---0---4---4--------------------|
|----------------------------------|----------------------------------|

  |       |       |       |          |       |       |
      |         
|----------------------------------|----------------------------------|
|----------------------------------|----------------------------------|
|-----------------2---2---4---2----|-----------------2---2---4---2----|
|-0---0---4---4--------------------|-0---0---4---4--------------------|

  |       |       |       |          |       |       |
      |         
|----------------------------------|----------------------------------|
|----------------------------------|----------------------------------|
|-----------------2---2---4---2----|-----------------2---2---4---2----|
|-0---0---4---4--------------------|-0---0---4---4--------------------|

  |       |       |       |          |       |       |
      |         
|----------------------------------|----------------------------------|
|----------------------------------|----------------------------------|
|-----------------2---2---4---2----|-----------------2---2---4---2----|
|-0---0---4---4--------------------|-0---0---4---4--------------------|

  |       |       |       |          |       |       |
      |         
|----------------------------------|----------------------------------|
|----------------------------------|----------------------------------|
|-----------------2---2---4---2----|-----------------2---2---4---2----|
|-0---0---4---4--------------------|-0---0---4---4--------------------|

  |       |       |       |          |       |       |
      |         
|----------------------------------|----------------------------------|
|----------------------------------|----------------------------------|
|-0---0---0---0---0---0---0---0----|-0-----------0--------------------|
|----------------------------------|----------------------------------|


Created with TablEdit http://www.tabledit.com/

     
Добавлено: 05.12.2013
Другие материалы по этой песне:
  • Аккорды и текст

Страница создана 05.12.2013
http://primanota.ru/ventures/gringo-chords.htm
Привет, Гость.
Предлагаем пройти революционный курс по гитаре.
Подарок от PrimaNota.Ru, забирай!