PrimaNota.ru - самый крупный в мире бесплатный архив песенных текстов, аккордов, табулатур и нот


Ventura Lights - Kings Are Coming - таба, видео

Регистрация Запомнить меня
Войти через:  Facebook Google Twitter Vk Yandex Mail.ru

Ventura Lights - Kings Are Coming - таба, видео

Печатать
Просмотров: 239
What's up everyone?
I thought I'd contribute to the whole YT-band by making this tab
Let me know what you all think! ^_^


Tuning: Drop C#


VERSE I

Guitar I:

D#|------------|
A#|------------|
F#|------------|
C#|---0----0---|
G#|---0----0---|
C#|---0----0---|
   (Palm muted)


Guitar II:

D#|---------------------------------------------------------|
A#|------10----10----10----10----11----11----11----11-------|
F#|---------------------------------------------------------|
C#|---12----12----12----12----12----12----12----12----------|
G#|---------------------------------------------------------|
C#|---------------------------------------------------------|


D#|---------------------------------------------------------|
A#|------11----11----11----11-------------------------------|
F#|------------------------------14----14----14----14-------|
C#|---13----13----13----13----15----15----15----15----------|
G#|---------------------------------------------------------|
C#|---------------------------------------------------------|

CHORUS I

Guitar I:

D#|--------10~-----------8~-----------6~--------------10~---|
A#|------11~-----------10~-----------7~-------------11~-----|
F#|----12~-----------10~------------8~------------12~-------|
C#|---------------------------------------------------------|
G#|---------------------------------------------------------|
C#|---------------------------------------------------------|


VERSE II

Guitar I:

D#|---------------------------------------------------------------------------|
A#|---------------------------------------------------------------------------|
F#|---------------------------------------------------------------------------|
C#|-----7---7---7---7---8---8---8---8---8---8---8---8---10---10---10---10-----|
G#|---5---5---5---5---5---5---5---5---6---6---6---6---8----8----8----8--------|
C#|---------------------------------------------------------------------------|
                                   (Palm muted)

There's one variation before the vocals that goes like this:

D#|-----------------------------------------------------------------------|
A#|-----------------------------------------------------------------------|
F#|-----------------------------------------------------------------------|
C#|-----7---7---7---7---8---8---8---8---8---8---8---8---7--8p7------------|
G#|---5---5---5---5---5---5---5---5---6---6---6---6---8--------8\10-------|
C#|-----------------------------------------------------------------------|
                                   (Palm muted)

Guitar II:

D#|---------------------------------------------------------|
A#|------10----10----10----10----11----11----11----11-------|
F#|---------------------------------------------------------|
C#|---12----12----12----12----12----12----12----12----------|
G#|---------------------------------------------------------|
C#|---------------------------------------------------------|


D#|---------------------------------------------------------|
A#|------11----11----11----11-------------------------------|
F#|------------------------------14----14----14----14-------|
C#|---13----13----13----13----15----15----15----15----------|
G#|---------------------------------------------------------|
C#|---------------------------------------------------------|

CHORUS II

Guitar I:

D#|--------10~-----------8~-----------6~--------------10~---|
A#|------11~-----------10~-----------7~-------------11~-----|
F#|----12~-----------10~------------8~------------12~-------|
C#|---------------------------------------------------------|
G#|---------------------------------------------------------|
C#|---------------------------------------------------------|

Guitar II:


D#|---------3----------------1----------------1----------------3---------|
A#|-------3---3------------1---1------------4---4------------3---3-------|
F#|-----3-------3--------2-------2--------3-------3--------3-------3-----|
C#|---5-----------5----3-----------3----1-----------1----5-----------5---|
G#|----------------------------------------------------------------------|
C#|----------------------------------------------------------------------|

BRIDGE

Guitar I:


D#|---------------------------------------------------------|
A#|---------------------------------------------------------|
F#|-----------------------5---------7----------10-----------|
C#|---5---------1---------5--(4x)---7--(4x)----10--(8x)-----|
G#|---5--(8x)---1--(8x)---3---------5----------8------------|
C#|---5---------1-------------------------------------------|
                          (Palm muted)

Guitar II:


D#|-----------------------------------------------|
A#|---8---------8---------11---------11-----------|
F#|---7--(4x)---7--(4x)---10--(4x)---10--(4x)-----|
C#|---5---------5---------8----------8------------|
G#|-----------------------------------------------|
C#|-----------------------------------------------|


D#|-----------------------------------------------|
A#|---13---------15---------6----------6----------|
F#|---12--(4x)---14--(4x)---5--(4x)----5-(4x)-----|
C#|---10---------12---------3----------3----------|
G#|-----------------------------------------------|
C#|-----------------------------------------------|

OUTRO

Guitar I:


D#|---------------------------------------------------------|
A#|---------------------------------------------------------|
F#|---------------------------------------------------------|
C#|---5----------8----------1----------3---------x-x-x-x----|
G#|---5--(16x)---8--(16x)---1--(16x)---3--(12x)--x-x-x-x----|
C#|---5----------8----------1----------3---------x-x-x-x----|


D#|-------------------------------------------------------------|
A#|-------------------------------------------------------------|
F#|-------------------------------------------------------------|
C#|---5----------8----------1----------3------------5-----5-----|
G#|---5--(16x)---8--(16x)---1--(16x)---3--(16x)-----5-----5-----|
C#|---5----------8----------1----------3------------5-----5-----|

Guitar II:


D#|-------------------------------------------------------------------------------------------|
A#|---8----------10--------11--------13-------16--------15-------13-------15------------------|
F#|---x--(12x)---x--(4x)---x--(12x)--x--(4x)--x--(12x)--x--(4x)--x--(8x)--x--(4x)-------------|
C#|---5----------7---------8---------10-------13--------12-------10-------12------x-x-x-x-----|
G#|-------------------------------------------------------------------------------x-x-x-x-----|
C#|-------------------------------------------------------------------------------x-x-x-x-----|

D#|----------------------------------------------------------------------------------------------|
A#|---8----------10--------11--------13-------16--------15-------13-------15----------8-----8----|
F#|---x--(12x)---x--(4x)---x--(12x)--x--(4x)--x--(12x)--x--(4x)--x--(8x)--x--(8x)-----x-----x----|
C#|---5----------7---------8---------10-------13--------12-------10-------12----------5-----5----|
G#|----------------------------------------------------------------------------------------------|
C#|----------------------------------------------------------------------------------------------|
Добавлено: 25.08.2013
Другие материалы по этой песне:
  • Аккорды и текст

Страница создана 25.08.2013
http://primanota.ru/ventura-lights/kings-are-coming-chords.htm
Привет, Гость.
Предлагаем пройти революционный курс по гитаре.
Подарок от PrimaNota.Ru, забирай!