PrimaNota.ru - самый крупный в мире бесплатный архив песенных текстов, аккордов, табулатур и нот


Ventura Lights - Breaking Out - таба, видео

Регистрация Запомнить меня
Войти через:  Facebook Google Twitter Vk Yandex Mail.ru

Ventura Lights - Breaking Out - таба, видео

Печатать
Просмотров: 205
-------------------------------------------------------------------------------
                             Breaking Out - Ventura Lights
-------------------------------------------------------------------------------
Tabbed by: LesPaul925

Tuning: Standard

Key: /= slide

e|---------------------------------------------------------------------------|
B|---------------------------------------------------------------------------|
G|---------7-----------9-----------------9-----------10----10/9-7/9----------|
D|-7-7-7---7---7-7-7---9---7-7---7-7-7---9---7-7-7---10----10/9-7/9----------| 
A|-7-7-7---5---7-7-7---7---7-7---7-7-7---7---7-7-7----8-----8/7-5/7----------|
E|-5-5-5-------5-5-5-------5-5---5-5-5-------5-5-5---------------------------|

(repeat 3x)
Добавлено: 19.11.2013
Вам также может быть интересно:
Другие материалы по этой песне:
  • Аккорды и текст

Страница создана 19.11.2013
http://primanota.ru/ventura-lights/breaking-out-chords.htm
Привет, Гость.
Предлагаем пройти революционный курс по гитаре.
Подарок от PrimaNota.Ru, забирай!