PrimaNota.ru - самый крупный в мире бесплатный архив песенных текстов, аккордов, табулатур и нот


Velvet Revolver - Superhuman intro easy - таба, видео

Регистрация Запомнить меня
Войти через:  Facebook Google Twitter Vk Yandex Mail.ru

Velvet Revolver - Superhuman intro easy - таба, видео

Печатать
Просмотров: 53




Its all done around the D7 open cord shape 1 octave up.


----------------------------------14-
----13---15---15-13---13---15--13----
----------------------------------14-
-12---12----12------12--12-----------
-------------------------------------
-------------------------------------

----------------------------------14-
----13---15---15-13---13---15--13----
----------------------------------14-
-12---12----12------12--12-----------
-------------------------------------
-------------------------------------


Its so easy when you get used to it and so fun to play. Slash made 
this around D7 so you can also play it in a lower octave.


Добавлено: 01.12.2013
Другие материалы по этой песне:
  • Аккорды и текст

Страница создана 01.12.2013
http://primanota.ru/velvet-revolver/superhuman-intro-easy-chords.htm
Привет, Гость.
Предлагаем пройти революционный курс по гитаре.
Подарок от PrimaNota.Ru, забирай!