PrimaNota.ru - самый крупный в мире бесплатный архив песенных текстов, аккордов, табулатур и нот


Velvet Revolver - Spay - текст песни, таба, видео

Регистрация Запомнить меня
Войти через:  Facebook Google Twitter Vk Yandex Mail.ru

Velvet Revolver - Spay - текст песни, таба, видео

Печатать
Просмотров: 102
-------------------------------------------------------------------------------
			     SONG NAME - Band Name
-------------------------------------------------------------------------------
Tabbed by: MR> U
Email:uleach@live.ca

Tuning: Drop D

Note: This is a fairly easy song to play for most people.
You will probably want to play this song with some heavy distortion. 
I don't have the solo or the bit before the solo tabbed out yet I will try
to get it figured out if I have time. This song can be played in standard 
tuning easily as well although I prefer drop D... if you prefer standard play 
everything that is on the low E string 2 frets down from what I show.  Enjoy...

Intro: Bass line:

                                                    (f)  
G|---------------------------------------------------------------------------|
D|---------------------------------------------------------------------------|
A|---------------------------------------------------------------------------|
E|---6--6-5--5-5--5-5-5--5-5-5-5-------6--6-5--5-5--5-5-5--5-5-5-5-----------|

G|---------------------------------------------------------------------------|
D|---------------------------------------------------------------------------|
A|---------------------------------------------------------------------------|
E|---6--6-5--5-5--5-5-5--5-5-5-5-------6--6-5-let ring-----------------------|

Guitar: (fade in from label(f) )

e|---------------------------------------------------------------------------|
B|----(12/15)(14)-----(12/15)(14)-----(12/15)(14)-----(9/12)(11)-------------|
G|-----12/15--14-------12/15--14-------12/15--14-------9/12--11--------------|
D|-----12/15--14-------12/15--14-------12/15--14-------9/12--11--------------|
A|---------------------------------------------------------------------------|
D|---------------------------------------------------------------------------|
(let last notes of each set ring out)

Verse: add some palm mutes in here and there to get the right sound

e|---------------------------------------------------------------------------|
B|---------------------------------------------------------------------------|
G|---------------------------------------------------------------------------|
D|---------------------------------------------------------------------------|
A|-----8--8-7---7-7--7-7-7--7-7-7-7------8--8-7---7-7--7-7-7--7-7-7-7--------|
D|-----8--8-7---7-7--7-7-7--7-7-7-7------8--8-7---7-7--7-7-7--7-7-7-7--------|
                                                                              
e|--------------------------------------------------------------------------||
B|--------------------------------------------------------------------------||
G|-------------------------------------------------------------------------0||
D|-------------------------------------------------------------------------0||
A|-----8--8-7---7-7--7-7-7--7-7-7-7------5--5-4---4-4--4-4-4--4-4-4-4-------||
D|-----8--8-7---7-7--7-7-7--7-7-7-7------5--5-4---4-4--4-4-4--4-4-4-4-------||

Chorus:

e|-----------------------------------------|
B|-----------------------------------------|
G|-----------------------------------------|
D|-----5--5--5-5-5-8-----------------------|
A|-----5--5--5-5-5-8-----------------------|
D|-----5--5--5-5-5-8---8-10-8-11-8-10-11---|    X3

e|-----------------------------------------|
B|-----------------------------------------|
G|-----------------------------------------|
D|-----3--3--3-3-3-6-----------------------|
A|-----3--3--3-3-3-6-----------------------|
D|-----3--3--3-3-3-6---6-8-6-9-6-8-9-------|   X1


e|-----------------------------------------|
B|-----------------------------------------|
G|-----------------------------------------|
D|-----5--5--5-5-5-8-----------------------|
A|-----5--5--5-5-5-8-----------------------|
D|-----5--5--5-5-5-8---8-10-8-11-8-10-11---|    X3

e|-----------------------------------------|
B|-----------------------------------------|
G|-----------------------------------------|
D|-----3--3--3-3-3-6-----------------------|
A|-----3--3--3-3-3-6-----------------------|
D|-----3--3--3-3-3-6-----------------------|
 
Bridge:

e|---------------------------------------------------------------------------|
B|----(12/15)-15--(14)-----(12/15)-15--(14)-----(12/15)-15--(14)-------------|
G|-----12/15----15-14-------12/15----15-14-------12/15----15-14--------------|
D|-----12/15-------14-------12/15-------14-------12/15-------14--------------|
A|---------------------------------------------------------------------------|
D|---------------------------------------------------------------------------|
(let last chord of each set ring out-2 single notes between chords played fast)

e|---------------------------------------------|
B|----(12/15)(14)------------------------------|
G|-----12/15--14-------------------------------|
D|-----12/15--14-------------------------------|
A|---------------------------------------------|
D|---------------------------------------------|

Verse 2: add some palm mutes in here and there to get the right sound

e|---------------------------------------------------------------------------|
B|---------------------------------------------------------------------------|
G|---------------------------------------------------------------------------|
D|---------------------------------------------------------------------------|
A|-----8--8-7---7-7--7-7-7--7-7-7-7------8--8-7---7-7--7-7-7--7-7-7-7--------|
D|-----8--8-7---7-7--7-7-7--7-7-7-7------8--8-7---7-7--7-7-7--7-7-7-7--------|
                                                                              
e|--------------------------------------------------------------------------||
B|--------------------------------------------------------------------------||
G|-------------------------------------------------------------------------0||
D|-------------------------------------------------------------------------0||
A|-----8--8-7---7-7--7-7-7--7-7-7-7------5--5-4---4-4--4-4-4--4-4-4-4-------||
D|-----8--8-7---7-7--7-7-7--7-7-7-7------5--5-4---4-4--4-4-4--4-4-4-4-------||

Chorus 2:

e|-----------------------------------------|
B|-----------------------------------------|
G|-----------------------------------------|
D|-----5--5--5-5-5-8-----------------------|
A|-----5--5--5-5-5-8-----------------------|
D|-----5--5--5-5-5-8---8-10-8-11-8-10-11---|    X3

e|-----------------------------------------|
B|-----------------------------------------|
G|-----------------------------------------|
D|-----3--3--3-3-3-6-----------------------|
A|-----3--3--3-3-3-6-----------------------|
D|-----3--3--3-3-3-6---6-8-6-9-6-8-9-------|   X1


e|-----------------------------------------|
B|-----------------------------------------|
G|-----------------------------------------|
D|-----5--5--5-5-5-8-----------------------|
A|-----5--5--5-5-5-8-----------------------|
D|-----5--5--5-5-5-8---8-10-8-11-8-10-11---|    X3


e|-----------------------------------------|
B|-----------------------------------------|
G|-----------------------------------------|
D|-----3--3--3-3-3-6-----------------------|
A|-----3--3--3-3-3-6-----------------------|
D|-----3--3--3-3-3-6---6-8-6-9-6-8-9-------|   

Bridge/solo: Unsure of may post later if I have the time

Chorus 3:

e|-----------------------------------------|
B|-----------------------------------------|
G|-----------------------------------------|
D|-----5--5--5-5-5-8-----------------------|
A|-----5--5--5-5-5-8-----------------------|
D|-----5--5--5-5-5-8---8-10-8-11-8-10-11---|    X3

e|-----------------------------------------|
B|-----------------------------------------|
G|-----------------------------------------|
D|-----3--3--3-3-3-6-----------------------|
A|-----3--3--3-3-3-6-----------------------|
D|-----3--3--3-3-3-6---6-8-6-9-6-8-9-------|   X1


e|-----------------------------------------|
B|-----------------------------------------|
G|-----------------------------------------|
D|-----5--5--5-5-5-8-----------------------|
A|-----5--5--5-5-5-8-----------------------|
D|-----5--5--5-5-5-8---8-10-8-11-8-10-11---|    X3

e|-----------------------------------------|
B|-----------------------------------------|
G|-----------------------------------------|
D|-----3--3--3-3-3-6-----------------------|
A|-----3--3--3-3-3-6-----------------------|
D|-----3--3--3-3-3-6-----------------------|
                    Last note ring


| /  slide up
| \  slide down
| h  hammer-on
| p  pull-off
| ~  vibrato
| +  harmonic
| x  Mute note
===============================================================================

Добавлено: 23.07.2013
Другие материалы по этой песне:
  • Аккорды и текст

Страница создана 02.03.2012
http://primanota.ru/velvet-revolver/spay-chords.htm
Привет, Гость.
Предлагаем пройти революционный курс по гитаре.
Подарок от PrimaNota.Ru, забирай!