PrimaNota.ru - самый крупный в мире бесплатный архив песенных текстов, аккордов, табулатур и нот


Velvet Revolver - She Mine - текст песни, таба, видео

Регистрация Запомнить меня
Войти через:  Facebook Google Twitter Vk Yandex Mail.ru

Velvet Revolver - She Mine - текст песни, таба, видео

Печатать
Просмотров: 95
Hey kids this song rocks. I'm sure this isn't totally correct partly as its two
guitars tabbed for one but it sounds damn good. Enjoy!

Tuning: DROP D

(intro-don't really have a clue about this)
e|--------------|
B|--------------|
G|--------------|
D|-2------------|
A|-0------------|
D|---5~~~~~~~~~-|

(0:25)
e|-------------------------------|
B|-------------------------------|
G|-------------------------------|
D|-5-7-xxxx-5-7-x-8-x-7-x-5-7/---|
A|-5-7-xxxx-5-7-x-8-x-7-x-5-7/---|
D|-5-7-xxxx-5-7-x-8-x-7-x-5-7/---|x2

e|-----------------------|
B|-----------------------|
G|-----------------------|
D|-5/7~-5/7~-8-7-5h7~/---|
A|-----------------------|
D|-----------------------|x2

(0:40)
e|------------------------------------|
B|---12—--10--------------------------|
G|-------------11---12---11---9h11/---|
D|-9----9----9----9----9----9---------|
A|------------------------------------|
D|------------------------------------|x3

e|------------------------------------------|
B|---12—--10--------------------------------|
G|-------------11---12---11---9~-9~-9~-9~---|
D|-9----9----9----9----9----9---------------|
A|------------------------------------------|
D|------------------------------------------|

(0:54)
e|------------------------------------------------------------|
B|---------------------------------5-5-5-5-5-5-5-5-5-5-5------|
G|-5-5-5-5-5-5-5-xx-4-4-4-4-4-4-4--4-4-4-4-4-4-4-4-4-4---4~---|
D|-5-5-5-5-5-5-5-xx-4-4-4-4-4-4-4--2-2-2-2-2-2-2-2-2-2--------|
A|-3-3-3-3-3-3-3-xx-2-2-2-2-2-2-2--2-2-2-2-2-2-2-2-2-2--------|
D|---------------------------------2-2-2-2-2-2-2-2-2-2--------|

e|-------------------------------------------------------------------|
B|---------------------------------5-5-5-5-5-5-5-5-5-5-5-5-5-5-5-5---|
G|-5-5-5-5-5-5-5-xx-4-4-4-4-4-4-4--4-4-4-4-4-4-4-4-4-4-4-4-4-4-4-4---|
D|-5-5-5-5-5-5-5-xx-4-4-4-4-4-4-4--2-2-2-2-2-2-2-2-2-2-2-2-2-2-2-2---|
A|-3-3-3-3-3-3-3-xx-2-2-2-2-2-2-2--2-2-2-2-2-2-2-2-2-2-2-2-2-2-2-2---|
D|---------------------------------2-2-2-2-2-2-2-2-2-2-2-2-2-2-2-2---|

(1:09)
e|-------------------------------|
B|-------------------------------|
G|-------------------------------|
D|-5-7-xxxx-5-7-x-8-x-7-x-5-7/---|
A|-5-7-xxxx-5-7-x-8-x-7-x-5-7/---|
D|-5-7-xxxx-5-7-x-8-x-7-x-5-7/---|x2



e|-----------------------|
B|-----------------------|
G|-----------------------|
D|-5/7~-5/7~-8-7-5h7~/---|
A|-----------------------|
D|-----------------------|x2

(1:23)
e|-----------------------|
B|-----------------------|
G|-2/4~-2/4~-5-4-2h4~/---|
D|-----------------------|
A|-----------------------|
D|-----------------------|x2

(1:31)
e|-------------------------------------|
B|---12—--10---------------------------|
G|-------------11---12---11---9h11~/---|
D|-9----9----9----9----9----9----------|
A|-------------------------------------|
D|-------------------------------------|x3

e|------------------------------------------|
B|---12—--10--------------------------------|
G|-------------11---12---11---9~-9~-9~-9~---|
D|-9----9----9----9----9----9---------------|
A|------------------------------------------|
D|------------------------------------------|

(1:45)
e|------------------------------------------------------------|
B|---------------------------------5-5-5-5-5-5-5-5-5-5-5------|
G|-5-5-5-5-5-5-5-xx-4-4-4-4-4-4-4--4-4-4-4-4-4-4-4-4-4---4~---|
D|-5-5-5-5-5-5-5-xx-4-4-4-4-4-4-4--2-2-2-2-2-2-2-2-2-2--------|
A|-3-3-3-3-3-3-3-xx-2-2-2-2-2-2-2--2-2-2-2-2-2-2-2-2-2--------|
D|---------------------------------2-2-2-2-2-2-2-2-2-2--------|

e|-------------------------------------------------------------------|
B|---------------------------------5-5-5-5-5-5-5-5-5-5-5-5-5-5-5-5---|
G|-5-5-5-5-5-5-5-xx-4-4-4-4-4-4-4--4-4-4-4-4-4-4-4-4-4-4-4-4-4-4-4---|
D|-5-5-5-5-5-5-5-xx-4-4-4-4-4-4-4--2-2-2-2-2-2-2-2-2-2-2-2-2-2-2-2---|
A|-3-3-3-3-3-3-3-xx-2-2-2-2-2-2-2--2-2-2-2-2-2-2-2-2-2-2-2-2-2-2-2---|
D|---------------------------------2-2-2-2-2-2-2-2-2-2-2-2-2-2-2-2---|

(1:59)
e|-------------------------------|
B|-------------------------------|
G|-------------------------------|
D|-5-7-xxxx-5-7-x-8-x-7-x-5-7/---|
A|-5-7-xxxx-5-7-x-8-x-7-x-5-7/---|
D|-5-7-xxxx-5-7-x-8-x-7-x-5-7/---|x4

(2:14)
e|------------------------------------------------------------------|
B|---------------------------------7-7-7-7-7-7-7-7-7-7-7-7-7-7-7-7--|
G|---------------------------------7-7-7-7-7-7-7-7-7-7-7-7-7-7-7-7--|
D|-3-3-3-3-3-3-3-3-5-5-5-5-5-5-5-5-0-0-0-0-0-0-0-0-0-0-0-0-0-0-0-0--|
A|-3-3-3-3-3-3-3-3-5-5-5-5-5-5-5-5-0-0-0-0-0-0-0-0-0-0-0-0-0-0-0-0--|
D|-3-3-3-3-3-3-3-3-5-5-5-5-5-5-5-5-0-0-0-0-0-0-0-0-0-0-0-0-0-0-0-0--|



e|------------------------------------------------------------------|
B|---------------------------------7-7-7-7-7-7-7-7-7-7-7-7-7-7-7-7--|
G|---------2-0---------------------7-7-7-7-7-7-7-7-7-7-7-7-7-7-7-7--|
D|-3-3-3-3-----2-0-5-5-5-5-5-5-5-5-0-0-0-0-0-0-0-0-0-0-0-0-0-0-0-0--|
A|-3-3-3-3---------5-5-5-5-5-5-5-5-0-0-0-0-0-0-0-0-0-0-0-0-0-0-0-0--|
D|-3-3-3-3---------5-5-5-5-5-5-5-5-0-0-0-0-0-0-0-0-0-0-0-0-0-0-0-0--|


(2:28)
e|-------12-------12-------12-------12-------12-------12-------12-------12-|
B|----------15-------15-------15-------15-------15-------15-------15-------|
G|-12-14-------14-------14-------14-------14-------14-------14-------14----|
D|-------------------------------------------------------------------------|
A|-------------------------------------------------------------------------|
D|-------------------------------------------------------------------------|

(this bit fits but its not right)
e|----------------------------------------------|
B|----------------13----------------13----------|
G|-------12-14-15----------12-14-15----------12-|
D|-14-15-------------14-15-------------14-15----|
A|----------------------------------------------|
D|----------------------------------------------|

(2:39)
e|------------------------5-7b-7-8b-8-5-7-5b-5----------------|
B|----------------------5----------------------8--------------|
G|-7b-8b-8b-8b-5b-8b-7b--------------------------7b-7b-7b-7p5-|
D|------------------------------------------------------------|
A|------------------------------------------------------------|
D|------------------------------------------------------------|

(2:51)
e|---------------------------------|
B|---------------------------------|
G|---------------------------------|
D|-7p5-7p5-------------------------|
A|---------7p5-7p5-3p0-5p3p0-------|
D|---------------------------5p3p0-|

(2:53)
e|-------------------------------|
B|-------------------------------|
G|-------------------------------|
D|-5-7-xxxx-5-7-x-8-x-7-x-5-7/---|
A|-5-7-xxxx-5-7-x-8-x-7-x-5-7/---|
D|-5-7-xxxx-5-7-x-8-x-7-x-5-7/---|x8

| /  slide down
| h  hammer-on
| p  pull-off
| ~  vibrato
| b  bend





Добавлено: 04.07.2013
Другие материалы по этой песне:

Страница создана 18.07.2012
http://primanota.ru/velvet-revolver/she-mine-chords.htm
Привет, Гость.
Предлагаем пройти революционный курс по гитаре.
Подарок от PrimaNota.Ru, забирай!