PrimaNota.ru - самый крупный в мире бесплатный архив песенных текстов, аккордов, табулатур и нот


Velvet Revolver - She Builds Quick Machines - текст песни, таба, бас-таба, видео

Регистрация Запомнить меня
Войти через:  Facebook Google Twitter Vk Yandex Mail.ru

Velvet Revolver - She Builds Quick Machines - текст песни, таба, бас-таба, видео

Печатать
Просмотров: 122
E||------------------------------|----------------------------|
B||------------------------------|----------------------------|
G||------------------------------|---------------------10~----|
D||--0--10--12--0--10--12--0--9--|--0--9--10--0--9--0---------|
A||------------------------------|----------------------------|
D||------------------------------|----------------------------|


E|------------------------------|----------------------------|
B|------------------------------|----------------------------|
G|------------------------------|---------------------10~----|
D|--0--10--12--0--10--12--0--9--|--0--9--10--0--9--0---------|
A|------------------------------|----------------------------|
D|------------------------------|----------------------------|


E|------------------------------|----------------------------|
B|------------------------------|----------------------------|
G|------------------------------|---------------------10~----|
D|--0--10--12--0--10--12--0--9--|--0--9--10--0--9--0---------|
A|------------------------------|----------------------------|
D|------------------------------|----------------------------|

E|------------------------------|--------------------------|
B|------------------------------|--------------------------|
G|------------------------------|--------------------------|
D|--0--10--12--0--10--12--0--9--|--0--9--10----------------|
A|------------------------------|---------------3--2-------|
D|------------------------------|------------0--------3----|

E|------------------------------|--------------------------|
B|------------------------------|--------------------------|
G|------------------------------|--------------------------|
D|------------------------------|--------------------------|
A|--0--10--12--0--10--12--0--9--|--0--9--10--0--9--0--3----|
D|--0--10--12--0--10--12--0--9--|--0--9--10--0--9--0--3----|

E|------------------------------|--------------------------|
B|------------------------------|--------------------------|
G|------------------------------|--------------------------|
D|------------------------------|--------------------------|
A|--0--10--12--0--10--12--0--9--|--0--9--10--0--9--0--3----|
D|--0--10--12--0--10--12--0--9--|--0--9--10--0--9--0--3----|

E|------------------------------|----------------------------|
B|------------------------------|----------------------------|
G|------------------------------|---------------------10~----|
D|------------------------------|----------------------------|
A|--0--10--12--0--10--12--0--9--|--0--9--10--0--9--0---------|
D|--0--10--12--0--10--12--0--9--|--0--9--10--0--9--0---------|

E|------------------------------|--------------------------|
B|------------------------------|--------------------------|
G|------------------------------|--------------------------|
D|------------------------------|--------------------------|
A|--0--10--12--0--10--12--0--9--|--0--9--10--0--9--0--3----|
D|--0--10--12--0--10--12--0--9--|--0--9--10--0--9--0--3----|

E|------------------------------|--------------------------|
B|------------------------------|--------------------------|
G|------------------------------|--------------------------|
D|------------------------------|--------------------------|
A|------------------------------|--------------------------|
D|--0--10--12--0--10--12--0--9--|--0--9--10--0--9--0--3----|


E|------------------------------|----------------------------|
B|------------------------------|----------------------------|
G|------------------------------|----------------------------|
D|------------------------------|----------------------------|
A|------------------------------|---------------10--9--------|
D|--0--10--12--0--10--12--0--9--|--0--9--10--0---------12----|

E|------------------------------|----------------------------|
B|------------------------------|----------------------------|
G|------------------------------|---------------------10~----|
D|------------------------------|----------------------------|
A|------------------------------|----------------------------|
D|--0--10--12--0--10--12--0--9--|--0--9--10--0--9--0---------|

E|------------------------------|----------------------------|
B|------------------------------|----------------------------|
G|------------------------------|----------------------------|
D|------------------------------|----------------------------|
A|------------------------------|---------------10--9--------|
D|--0--10--12--0--10--12--0--9--|--0--9--10--0---------12----|

E|---------------------|-------------------|---------------------|
B|----------------3----|--L----------------|---------------------|
G|--2------2-----------|--L----------------|--5-------------5----|
D|--0------------------|--L----------------|--5------5-----------|
A|--0------------------|--L----------------|--3------------------|
D|--0------------------|--L----------------|---------------------|

E|-------------------|---------------------|--------------------|
B|-------------------|---------------------|--------------------|
G|--L----------------|--10------------9----|--L--------7--------|
D|--L----------------|---------------------|--------------------|
A|--L----------------|---8------------7----|--L--------5--------|
D|-------------------|---------------------|--------------------|

E|---------------------|-------------------|---------------------|
B|---------------------|-------------------|---------------------|
G|--11------------2----|--L----------------|--11~----------------|
D|----------------0----|--L----------------|---------------------|
A|---9------------0----|--L----------------|---------------------|
D|---------------------|-------------------|---------------------|

E|------------------------|---------------------|----------------------|
B|------------------------|---------------------|----------------------|
G|--11------12------11----|--9b------------9----|--L------------7h--9--|
D|------------------------|---------------------|----------------------|
A|------------------------|---------------------|----------------------|
D|------------------------|---------------------|----------------------|

E|---------------------|--------------------|--------------------|
B|---------------------|--------------------|--------------------|
G|--9b------------9----|--L--------7--------|--11----------------|
D|---------------------|--------------------|--------------------|
A|---------------------|--------------------|--------------------|
D|---------------------|--------------------|--------------------| 

E|-------------------------|--------------------|
B|-------------------------|--15----------------|
G|----------------14h--16--|--------------------|
D|-------------------------|--------------------|
A|-------------------------|--------------------|
D|-------------------------|--------------------|

E|------------------------|-----------------------|
B|--19------20------19----|--17b------------17----|
G|------------------------|-----------------------|
D|------------------------|-----------------------|
A|------------------------|-----------------------|
D|------------------------|-----------------------|

E|------------------------|----------------------|
B|----------------15--17--|--15------------12----|
G|------------------------|----------------------|
D|------------------------|----------------------|
A|------------------------|----------------------|
D|------------------------|----------------------|

E|----------------------|---------10---------10---------|
B|------------10--------|--13b--------13b--------13b----|
G|----------------------|-------------------------------|
D|----------------------|-------------------------------|
A|----------------------|-------------------------------|
D|----------------------|-------------------------------|



This is the best i can do and it sounds right to me.So i hope u guys like it.
Добавлено: 19.11.2013
Другие материалы по этой песне:

Страница создана 12.03.2012
http://primanota.ru/velvet-revolver/she-builds-quick-machines-chords.htm
Привет, Гость.
Предлагаем пройти революционный курс по гитаре.
Подарок от PrimaNota.Ru, забирай!