PrimaNota.ru - самый крупный в мире бесплатный архив песенных текстов, аккордов, табулатур и нот


Velour 100 - Tenth Month - таба, видео

Регистрация Запомнить меня
Войти через:  Facebook Google Twitter Vk Yandex Mail.ru

Velour 100 - Tenth Month - таба, видео

Печатать
Просмотров: 94
Уроки эстрадного вокала в Санкт-Петербурге
		   Song: "tenth month"
Artist: Velour 100
Album: Songs From The Rainwater EP
Words&Music: Velour 100
Tabbed: Ken Bonner bonner@iserv.net

Well, here's how the song goes...

Verse Part 1:

e-----------------------------
B---0-----0-----0-----0-------
G--0-0---0-0---0-0---0-0------
D-----------------------------
A-2---2-3---3-5---5-5---5-----
E-----------------------------

Part 2:

e-----------------------------
B---0-----0-----0-----0-------
G--0-0---0-0---0-0---0-0------
D-5---5-4---4-2---2-2---2-----
A-----------------------------
E-----------------------------

Solo:

e-3--3--5--2-3-3-2-0-----
B--3--3--3---------------
G---5--5--5--------------
D------------------------
A------------------------
E------------------------


That's basically it. Have Fun     
Добавлено: 09.08.2013
Вам также может быть интересно:
Другие материалы по этой песне:
  • Аккорды и текст

Страница создана 09.08.2013
http://primanota.ru/velour-100/tenth-month-chords.htm
Привет, Гость.
Предлагаем пройти революционный курс по гитаре.
Подарок от PrimaNota.Ru, забирай!