PrimaNota.ru - самый крупный в мире бесплатный архив песенных текстов, аккордов, табулатур и нот


Velour 100 - Stare Into Light - таба, видео

Регистрация Запомнить меня
Войти через:  Facebook Google Twitter Vk Yandex Mail.ru

Velour 100 - Stare Into Light - таба, видео

Печатать
Просмотров: 109
		   Artist: Velour
Album:  Fall Sounds
Song:   Stare into Light                   
Label: Tooth and Nail
Tabbed by Nate - knighjn@okstate.edu               

Part 1                                              
e|----------------|--------------------|--------------2--2--------|--------------2--|
b|-------------0--|--------------3--2--|--------------------3-----|--------------3--|
g|----------2-----|-----------2--------|-----------2-----------0--|-----------2--2--|
d|-------0--------|--------0-----------|--------0-----------------|--------0-----0--|
a|-0--2-----------|--0--2--------------|--0--2--------------------|--0--2--------0--|
e|----------------|--------------------|--------------------------|-----------------|
                                                                                

Part 2                                                                                
e|-----------------------|-----------------------|--------------------------2-----|
b|-----------------0-----|-----------------0-----|-----------0-----------------3--|
g|--------2-----2-----2--|--------2-----2-----2--|--------2-----2--------2--------|
d|-----0-----0-----------|-----0-----0-----------|-----0--------------0-----------|
a|--2--------------------|--2--------------------|--------------------------------|
e|-----------------------|-----------------------|--3--------------3--------------|
                                                                                

Part 3                                                                                
e|--------------2--------|
b|-----------------3-----|
g|--------2--------------|
d|-----0-----0-----------|
a|--2--------------------|
e|--------------------3--|

                                                                               

Part 4 - solo thingy                                                                
e|------------------------------------------|----------------------|
b|--2--3--2--3--2--3--2--2-----2-----2------|----------------------|
g|--------------------------2-----2-----2---|--2/4--4--4--4--2--2--|
d|------------------------------------------|----------------------|
a|------------------------------------------|----------------------|
e|------------------------------------------|----------------------|
                                                                                

End                                                                                
e|-----------------|
b|--------------0--|
g|-----------2-----|
d|--------0--------|
a|--0--2-----------|
e|-----------------|
                                                                                



Order:

Part 1 - 3 times
Part 2 - 2 times
Part 1 - 2 times
Part 2 - 4 times
Part 3 - 4 times
Part 4 - 1 time  2nd Guitar play part 3 during solo
Part 2 - 4 times
Play End

I'm kind of iffy on part 2.  I had some trouble with it.  Correct me if you
can play it more correctly.  Thanks to Velour100 for being so cool and to
my brother for letting me use his guitar.  This is an interpretation of the
song "Stare into Light" by Velour no sueing is neccesary.  Peace in Christ.  NAte     
Добавлено: 24.06.2013
Другие материалы по этой песне:
  • Аккорды и текст

Страница создана 24.06.2013
http://primanota.ru/velour-100/stare-into-light-chords.htm
Привет, Гость.
Предлагаем пройти революционный курс по гитаре.
Подарок от PrimaNota.Ru, забирай!