PrimaNota.ru - самый крупный в мире бесплатный архив песенных текстов, аккордов, табулатур и нот


Velour 100 - Clouds - таба, видео

Регистрация Запомнить меня
Войти через:  Facebook Google Twitter Vk Yandex Mail.ru

Velour 100 - Clouds - таба, видео

Печатать
Просмотров: 66
Уроки эстрадного вокала в Санкт-Петербурге
		   Clouds
Velour100: Of Color Bright
Copyright 1997 Tooth & Nail Records
The Official Velour100 site:
http://www.ygi.edu.cn/~ejd/Velour/ or
http://members.tripod.com/~Kelind/
tabbed by Collin Derrick
e-mail:ejd@china2.ygi.edu.cn

tuning:not sure, normal or up a half step
singing:tess wiley
the bass guitar was throwing me off so all of this probably isn't perfect
intro:(played with the harmonizing)
E|-----3---3---3---3-----------------|-----3---3---3---3-----------------|
B|---------------------3---3---3---3-|---------------------3---3---3---3-|
G|---5---5---4---4---2---2---2---2---|---5---5---4---4---2---2---2---2---|
D|-----------------------------------|-----------------------------------|
A|-----------------------------------|-----------------------------------|
E|-----------------------------------|-----------------------------------|

E|-----3---3---3---3-----------------|-----3---3---3---3---5---5---5---5-|
B|---------------------3---3---3---3-|-----------------------------------|
G|---5---5---4---4---2---2---2---2---|---5---5---4---4---2---2---2---2---|
D|-----------------------------------|-----------------------------------|
A|-----------------------------------|-----------------------------------|
E|-----------------------------------|-----------------------------------|
(played with distortion)
E|-----------------------------------|-----------------------------------|
B|-----------------------------------|-----------------------------------|
G|-----------------------------------|-----------------------------------|
D|---10--10--10-10--10--5--5---5-5-5-|---10--10--10-10--10--5--5---5-5-5-|
A|---10--10--10-10--10--5--5---5-5-5-|---10--10--10-10--10--5--5---5-5-5-|
E|---8---8---8--8---8---3--3---3-3-3-|---8---8---8--8---8---3--3---3-3-3-|

E|-----------------------------------|-----------------------------------|
B|-----------------------------------|-----------------------------------|
G|-----------------------------------|-----------------------------------|
D|---10--10--10-10--10--5--5---5-5-5-|---3--3--3-3--5--5-5---5-5-5-------|
A|---10--10--10-10--10--5--5---5-5-5-|---3--3--3-3--5--5-5---5-5-5-------|
E|---8---8---8--8---8---3--3---3-3-3-|---1--1--1-1--3--3-3---3-3-3-------|
verse:(not sure if this is right)
E|-----------------------------------|-----------------------------------|
B|-----------------------------------|-----------------------------------|
G|-----------------------------------|-----------------------------------|
D|---5-5-5-5-5-5-2-3-3-3-3-3-3-3-3-3-|---5-5-5-5-5-5-2-3-3-3-3-3-3-3-3-3-|
A|---5-5-5-5-5-5-2-3-3-3-3-3-3-3-3-3-|---5-5-5-5-5-5-2-3-3-3-3-3-3-3-3-3-|
E|---3-3-3-3-3-3-0-1-1-1-1-1-1-1-1-1-|---3-3-3-3-3-3-0-1-1-1-1-1-1-1-1-1-|
           walk  a long                                staring skyward

E|-----------------------------------|-----------------------------------|
B|-----------------------------------|-----------------------------------|
G|-----------------------------------|-----------------------------------|
D|---5-5-5-5-5-5-2-3-3-3-3-3-3-3-3-3-|---9--9--9-9--5--5-5---5-5-5-------|
A|---5-5-5-5-5-5-2-3-3-3-3-3-3-3-3-3-|---9--9--9-9--5--5-5---5-5-5-------|
E|---3-3-3-3-3-3-0-1-1-1-1-1-1-1-1-1-|---7--7--7-7--3--3-3---3-3-3-------|
                   shapes of heaven      fill my    eyes

E|-----------------------------------|-----------------------------------|
B|-----------------------------------|-----------------------------------|
G|-----------------------------------|-----------------------------------|
D|---5-5-5-5-5-5-2-3-3-3-3-3-3-3-3-3-|---5-5-5-5-5-5-2-3-3-3-3-3-3-3-3-3-|
A|---5-5-5-5-5-5-2-3-3-3-3-3-3-3-3-3-|---5-5-5-5-5-5-2-3-3-3-3-3-3-3-3-3-|
E|---3-3-3-3-3-3-0-1-1-1-1-1-1-1-1-1-|---3-3-3-3-3-3-0-1-1-1-1-1-1-1-1-1-|
                   dreamlike                  drifting through horizon

E|-----------------------------------|-----------------------------------|
B|-----------------------------------|-----------------------------------|
G|-----------------------------------|-----------------------------------|
D|---5-5-5-5-5-5-2-3-3-3-3-3-3-3-3-3-|---9--9--9-9--5--5-5---5-5-5-------|
A|---5-5-5-5-5-5-2-3-3-3-3-3-3-3-3-3-|---9--9--9-9--5--5-5---5-5-5-------|
E|---3-3-3-3-3-3-0-1-1-1-1-1-1-1-1-1-|---7--7--7-7--3--3-3---3-3-3-------|
                   see you when i        close my   eyes

E|-----------------------------------|
B|-----------------------------------|
G|-----------------------------------|
D|---9--9--9-9--5--5-5---5-5-5-------|
A|---9--9--9-9--5--5-5---5-5-5-------|
E|---7--7--7-7--3--3-3---3-3-3-------|
           in   mind
Chorus:(same as distorted intro)
E|-----------------------------------|-----------------------------------|
B|-----------------------------------|-----------------------------------|
G|-----------------------------------|-----------------------------------|
D|---10--10--10-10--10--5--5---5-5-5-|---10--10--10-10--10--5--5---5-5-5-|
A|---10--10--10-10--10--5--5---5-5-5-|---10--10--10-10--10--5--5---5-5-5-|
E|---8---8---8--8---8---3--3---3-3-3-|---8---8---8--8---8---3--3---3-3-3-|
     the sun shines right through me     waves of color turning

E|-----------------------------------|-----------------------------------|
B|-----------------------------------|-----------------------------------|
G|-----------------------------------|-----------------------------------|
D|---10--10--10-10--10--5--5---5-5-5-|---3--3--3-3--5--5-5---5-5-5-------|
A|---10--10--10-10--10--5--5---5-5-5-|---3--3--3-3--5--5-5---5-5-5-------|
E|---8---8---8--8---8---3--3---3-3-3-|---1--1--1-1--3--3-3---3-3-3-------|
     your voice is resounding            deep in    my heart

sorry i didn't get the little strumming bit at the end     
Добавлено: 18.08.2013
Другие материалы по этой песне:
  • Аккорды и текст

Страница создана 18.08.2013
http://primanota.ru/velour-100/clouds-chords.htm
Привет, Гость.
Предлагаем пройти революционный курс по гитаре.
Подарок от PrimaNota.Ru, забирай!