PrimaNota.ru - самый крупный в мире бесплатный архив песенных текстов, аккордов, табулатур и нот


Velour 100 - Bittersweet - таба, видео

Регистрация Запомнить меня
Войти через:  Facebook Google Twitter Vk Yandex Mail.ru

Velour 100 - Bittersweet - таба, видео

Печатать
Просмотров: 90
		   Bittersweet
Velour100: Of Color Bright
Copyright 1997 Tooth & Nail Records
The Official Velour100 site:
http://www.ygi.edu.cn/~ejd/Velour/ or
http://members.tripod.com/~Kelind/
tabbed by Collin Derrick
e-mail:ejd@china2.ygi.edu.cn

tuning: up half a step (E# B# G# D# A# E#)
there is only one guitar for the whole song i think and an organ that plays the base notes
verse
E|-------------------------------------------------------------------|
B|-------1-------1-------1-------1-------1-------1-------1-------1---|
G|-------------------------------------------------------------------|
D|-------------------0-0-0-0-----------------------------------------|
A|---3-3-3-3-3-3-3-3---------0-0-0-0-1-1-1-1-1-1-1-1-1-1-1-1-1-1-1-1-|
E|-------------------------------------------------------------------|
      remember       days         of color bright
for the chorus they fiddle around and i didn't get that tabbed so this isn't exactly correct
E|-------------0--------------0--------------0--------------0-|
B|-------------1--------------1--------------1--------------1-|
G|-------------X--------------0--------------2--------------3-|
D|-------------3----------------------------------------------|
A|---------------------------------0--0--0-0------1--1--1-1---|
E|---1--1--1-1------3--3--3-3---------------------------------|
and no one knows  they all pretend   bitter       so bitter
p.s. sydney sings on this song     
Добавлено: 12.09.2013
Другие материалы по этой песне:
  • Аккорды и текст

Страница создана 12.09.2013
http://primanota.ru/velour-100/bittersweet-chords.htm
Привет, Гость.
Предлагаем пройти революционный курс по гитаре.
Подарок от PrimaNota.Ru, забирай!