PrimaNota.ru - самый крупный в мире бесплатный архив песенных текстов, аккордов, табулатур и нот


Velour 100 - Ambivalence - таба, видео

Регистрация Запомнить меня
Войти через:  Facebook Google Twitter Vk Yandex Mail.ru

Velour 100 - Ambivalence - таба, видео

Печатать
Просмотров: 86
		   Velour100: Songs from the Rainwater
Copyright 1997 Tooth & Nail Records
Official Velour100 site:
http://www.ygi.edu.cn/~ejd/Velour/ or
http://members.tripod.com/~Kelind/
tabbed by Collin Derrick
e-mail:ejd@china2.ygi.edu.cn
[ambivalence]

two picking parts for the chorus
part 1(very simple)
E|---3-----1-----3-----1-----|
B|-----1-1---1-1---1-1---1-1-|
G|---------------------------|
D|---------------------------|
A|---------------------------|
E|---------------------------|

part 2
E|---------------------------------------------------------------|
B|-------1-------1-1---------1-------1-1---------1-------1-1-----|
G|-----2-------2-----2-----2-------2-----2-----2-------2-----2---|
D|---3-------3---------3-0-------0---------0---------------------|
A|---------------------------------------------------------------|
E|-------------------------------------------3-------3---------3-|
  my thoughts        how   wander      loves i ponder 
                       they          the

couldn't figure out the strumming for this part
pre-chorus
 G A B C         G A B C
 why----- why do i

(repeat verse)
(repeat pre-chorus)

chorus
not sure if this is right
chords
  1  2
E|0  0
B|1  1
G|2  0
D|0  2
A|X  X
E|X  X

1                2
   i don't understand 
1                2 
   i don't know about it 
1                 2
   and is it even right for me to wonder?

end
E|-------------------------------------------------------------0-|
B|-------1-------1-1---------1-------1-1---------1-------1-1---1-|
G|-----2-------2-----2-----2-------2-----2-----2-------2-------2-|
D|---3-------3---------3-0-------0---------0-------------------0-|
A|-------------------------------------------------------------X-|
E|-------------------------------------------3-------3---------3-|
     
Добавлено: 07.11.2013
Другие материалы по этой песне:
  • Аккорды и текст

Страница создана 07.11.2013
http://primanota.ru/velour-100/ambivalence-chords.htm
Привет, Гость.
Предлагаем пройти революционный курс по гитаре.
Подарок от PrimaNota.Ru, забирай!