PrimaNota.ru - самый крупный в мире бесплатный архив песенных текстов, аккордов, табулатур и нот


Vektor - Ultimate Artificer - таба, видео

Регистрация Запомнить меня
Войти через:  Facebook Google Twitter Vk Yandex Mail.ru

Vektor - Ultimate Artificer - таба, видео

Печатать
Просмотров: 99
VEKTOR
"Ultimate Artificer"

Tuning: F A# D# G# C F (Half-Step Up from Standard)
Tempo: 200 bpm

[0:07]
  E Q  Q  E Q    E Q  Q  E Q
|-3-3--3--3-3--|-2-2--2--2-2-|
|-3-3--3--3-3--|-2-2--2--2-2-|
|-4-4--4--4-4--|-3-3--3--3-3-|
|-5-5--5--5-5--|-4-4--4--4-4-|
|-5-5--5--5-5--|-4-4--4--4-4-|
|-3-3--3--3-3--|-2-2--2--2-2-|


    Q  S S E S S E E E   +Q   E E  S  S S S S S  S  S   Q  Q  S S E E E   +Q   E E  S  S S S S S  S  S
||--7------------------|------------------------------|----7------------|------------------------------|
||o-7------------------|------------------------------|----7------------|------------------------------|
||--7------------------|------------------------------|----7------------|------------------------------|
||--9--------9-8-5-5---|------------------------------|----9--9-8-5-5---|------------------------------|
||o-9------------------|----------10-10-7-7-9-9-------|----9------------|----------10-10-7-7-9-9-------|
||--7--7-7-7---------9-|-(9)--9-9---------------10-10-|-7--7----------9-|-(9)--9-9---------------10-10-|


  E Q  E S S E E E   +Q   E E  S  S S S S S  S  S   E Q  Q  E Q    E Q  Q  E Q
|---7--7-----------|------------------------------|-3-3--3--3-3--|-2-2--2--2-2--||
|---7--7-----------|------------------------------|-3-3--3--3-3--|-2-2--2--2-2-o||
|---7--7-----------|------------------------------|-4-4--4--4-4--|-3-3--3--3-3--||
|---9--9-9-8-5-5---|------------------------------|-5-5--5--5-5--|-4-4--4--4-4--||
|---9--9-----------|----------10-10-7-7-9-9-------|-5-5--5--5-5--|-4-4--4--4-4-o||
|-7-7--7---------9-|-(9)--9-9---------------10-10-|-3-3--3--3-3--|-2-2--2--2-2--||


EDIT: This riff is easier to play in this position:
    Q  S S E S S E E E   +Q   E E S S S S S S S S   Q  Q  S S E E E   +Q   E E S S S S S S S S
||--2------------------|--------------------------|----2------------|--------------------------|
||o-3------------------|--------------------------|----3------------|--------------------------|
||--4--------4-3-0-0---|--------------------------|----4--4-3-0-0---|--------------------------|
||--4------------------|----------5-5-2-2-4-4-----|----4------------|----------5-5-2-2-4-4-----|
||o-2--2-2-2---------4-|-(4)--4-4-------------5-5-|-2--2----------4-|-(4)--4-4-------------5-5-|
||---------------------|--------------------------|-----------------|--------------------------|


  E Q  E S S E E E   +Q   E E S S S S S S S S   E Q  Q  E Q    E Q  Q  E Q
|---2--2-----------|--------------------------|-3-3--3--3-3--|-2-2--2--2-2--||
|---3--3-----------|--------------------------|-3-3--3--3-3--|-2-2--2--2-2-o||
|---4--4-4-3-0-0---|--------------------------|-4-4--4--4-4--|-3-3--3--3-3--||
|---4--4-----------|----------5-5-2-2-4-4-----|-5-5--5--5-5--|-4-4--4--4-4--||
|-2-2--2---------4-|-(4)--4-4-------------5-5-|-5-5--5--5-5--|-4-4--4--4-4-o||
|------------------|--------------------------|-3-3--3--3-3--|-2-2--2--2-2--||


 [0:28]
  E E E  E E  E E E   E  E E  E E  E E E   E E E  E E  E E E   +E  E  E E E E  E E
|-------------------|--------------------|-------------------|----------------------|
|-------------------|-------------10-----|-------------------|----------------------|
|-------------------|-------------10-----|-------------------|------------9---------|
|-9-----11---12---9-|---12---11---10-----|-9-----11---12---9-|-(9)------8---8-------|
|-7------9---10---7-|---10----9----------|-7------9---10---7-|-(7)-7-10-------10-7--|
|---0-0----0----0---|-0----0----0----0-0-|---0-0----0----0---|----------------------|


  E E E  E E  E E E   E  E E  E E  E E E   E E E  E E  E E E
|-------------------|--------------------|-------------------|
|-------------------|-------------10-----|-------------------|
|-------------------|-------------10-----|-------------------|
|-9-----11---12---9-|---12---11---10-----|-9-----11---12---9-|
|-7------9---10---7-|---10----9----------|-7------9---10---7-|
|---0-0----0----0---|-0----0----0----0-0-|---0-0----0----0---|


 6/4
  +E  E  E E S S S S S S S S S S S S S S S S
|------------7-3-------3-7-3-6-2-------2-6-2-|
|----------------5---5-----------4---4-------|
|------------------4---------------3---------|
|-(9)------8---------------------------------|
|-(7)-7-10-----------------------------------|
|--------------------------------------------|


 [0:39]
 4/4
  E E E E E E E E   E E E E E E E E   E E E E E E E  E    +E  E  E E E E E E
|-----------------|-----------7-----|---------------10-|-(10)---10---9---9----|
|-3-----5---7---3-|---7---5---7-----|-3-----5---7----9-|--(9)-9----9---8---8--|
|-4-----6---7---4-|---7---6---------|-4-----6---7------|----------------------|
|-----------------|-----------------|------------------|----------------------|
|-----------------|-----------------|------------------|----------------------|
|---0-0---0---0---|-0---0---0---0-0-|---0-0---0---0----|----------------------|


  E E E E E E E E   E E E E E E E E   E E E E E E E E   +E  E E E E E E E
|-----------------|-----------7-----|-----------------|--------------------|
|-3-----5---7---3-|---7---5---7-----|-3-----5---7-----|--------------------|
|-4-----6---7---4-|---7---6---------|-4-----6---7---4-|-(4)---4---3---3----|
|-----------------|-----------------|---------------5-|-(5)-5---5---4---4--|
|-----------------|-----------------|-----------------|--------------------|
|---0-0---0---0---|-0---0---0---0-0-|---0-0---0---0---|--------------------|


  E E E E E E E E   E E E E E E E E   E E E E E E E  E    +E  E  E E E E E E
|-----------------|-----------7-----|---------------10-|-(10)---10---9---9----|
|-3-----5---7---3-|---7---5---7-----|-3-----5---7----9-|--(9)-9----9---8---8--|
|-4-----6---7---4-|---7---6---------|-4-----6---7------|----------------------|
|-----------------|-----------------|------------------|----------------------|
|-----------------|-----------------|------------------|----------------------|
|---0-0---0---0---|-0---0---0---0-0-|---0-0---0---0----|----------------------|


  E E E E E E E E   E E E E E E E E   E E E E E E E  E    +E  E E E E  E  E  E
|-----------------|-----------7-----|------------------|------0---0-------------|
|-3-----5---7---3-|---7---5---7-----|-3-----5---7------|--------0---------------|
|-4-----6---7---4-|---7---6---------|-4-----6---7------|------------------------|
|-----------------|-----------------|------------------|------------9-----------|
|-----------------|-----------------|---------------10-|-(10)---------10----10--|
|---0-0---0---0---|-0---0---0---0-0-|---0-0---0---0----|-----------------12-----|


   [0:58]
     E S S S S  E S S S S S S S S   E  Q  E  E S S S S S S
||--------------------------------|------------------------|
||o-------------------------------|------------------------|
||--------------------------------|------------------------|
||--11---------11-----------------|-9-11--9-11-------------|
||o--9-9-9-9-9--9-9-9-9-9-9-9-9-9-|-7--9--7--9-9-9-9-9-9-9-|
||--------------------------------|------------------------|


  1.
   E S S S S  E S S S S E E    E E E E E  E  E  E
|---------------------------|----0---0-------------||
|---------------------------|------0--------------o||
|---------------------------|----------------------||
|-11---------11-------------|----------9-----------||
|--9-9-9-9-9--9-9-9-9-9-7-9-|-10---------10----10-o||
|---------------------------|---------------12-----||


  2.
   E S S S S  E S S S S S S S S   E E E E E E E E
|-------------------------------|---------0-------|
|-------------------------------|-------0---0-----|
|-------------------------------|-----6-------6---|
|-11---------11-----------------|---5-----------5-|
|--9-9-9-9-9--9-9-9-9-9-9-9-9-9-|-4---------------|
|-------------------------------|-----------------|


   [1:08] VERSE
    E Q  E Q  E E   +E  E Q  Q  Q    E Q  E Q  E E   +E  E E E E E E E  3x
||----------------|----------------|---------------|-----------0--------||
||o---------------|----------------|---------------|---------0---0-----o||
||----------------|----------------|--------4--4-3-|-(3)---3-------3----||
||--------------7-|-(7)------------|--------5--5-4-|-(4)-4-----------4--||
||o-7-9--7-9--7-5-|-(5)-7-9--4--7--|-7-9--4-5--5-4-|-(4)---------------o||
||--5-7--5-7--5---|-----5-7--2--5--|-5-7--2-3--3-2-|-(2)----------------||


  E Q  E Q  E E   +E  E Q  Q  Q    E E E E E E E E   E E E E E E E E
|---------------|----------------|-0-0-0-0-0-0-0-0-|-0-0-0-0-0-0-0-0--|
|---------------|----------------|-0-0-0-0-0-0-0-0-|-0-0-0-0-0-0-0-0--|
|---------------|----------------|-4-4-4-4-4-4-4-4-|-3-3-3-3-3-3-3-3--|
|-------------7-|-(7)------------|-5-5-5-5-5-5-5-5-|-4-4-4-4-4-4-4-4--|
|-7-9--7-9--7-5-|-(5)-7-9--4--7--|-5-5-5-5-5-5-5-5-|-4-4-4-4-4-4-4-4--|
|-5-7--5-7--5---|-----5-7--2--5--|-3-3-3-3-3-3-3-3-|-2-2-2-2-2-2-2-2--|


   [1:27] PRE-CHORUS
    E Q  E Q  Q    E E S S S S S S S S S S S S   E Q  E Q  Q    E E S S S S S S S S S S S S
||---------------|-----------------------------|--------------|------------------------------||
||o--------------|-----------------------------|--------------|-----------------------------o||
||---------------|-----------------------------|--------------|------------------------------||
||------------5--|-4-4-------------------------|--------------|------------------------------||
||o-5-7--5-7--3--|-2-2-2-2-2-2-2-2-2-2-2-2-2-2-|-5-7--5-7--5--|-4-4-------------------------o||
||--3-5--3-5-----|-----------------------------|-3-5--3-5--3--|-2-2-2-2-2-2-2-2-2-2-2-2-2-2--||


 [1:36] CHORUS
  S S S S E S S S S  E S S S S   E S S S S Q.   Q
|------------------------------|-------------------|
|------------------------------|-------------------|
|---------9---------11---------|-9---------6----3--|
|---------9---------11---------|-9---------5----2--|
|------------------------------|-------------------|
|-0-0-0-0---0-0-0-0----0-0-0-0-|---0-0-0-0---------|


  E E  E E E  E E E   E E E E Q  Q
|-------------------|-----------------|
|-------------------|-----------------|
|-------------------|-----------------|
|---9-11---9-12-----|-----------------|
|---7--9---7-10-----|-2---1-0-4s=7----|
|-0------0------0-3-|---3-----3s=6----|


    Gtr I
  E Q  E  Q  E E   +E  E Q  Q  Q    E E  E E E  E E  E    E  E  E  E  Q     Q
|----------------|----------------|--------------------|----------------------------|
|----------------|----------------|--------------------|----------------------------|
|---9----11----9-|-(9)---6--3--6--|--------------------|----------------------------|
|---9----11----9-|-(9)---5--2--5--|---9-11---9-12------|----------------------------|
|----------------|----------------|---7--9---7-10------|--2-----1--0--4s====7-------|
|-0----0-----0---|-----0----------|-0------0------0--3-|-----3--------3s====6-------|
|
| Gtr II                                                  |--3--|
| W                    W            H        Q    E  E    E  E  E  E  E  E  E  E  E
|----------------|----------------|--------------------|----------------------14-15-|
|----------------|----------------|--------------------|----------------------------|
|----------------|----------------|-----------------14-|-14h15p14----14-15----------|
|----------------|----------------|--------------------|----------17-------17-------|
|----------------|----------------|--------------------|----------------------------|
|----------------|----------------|--------------------|----------------------------|


 [2:24]
  E  Q  E  H       W          E  Q  E  H    W
|---------------|-----------|------------|-------|
|---------------|-----------|------------|-------|
|---------------|-----------|------------|-------|
|-9-11--9-11----|-11--------|-9-11--9-11-|-12----|
|-7--9--7--9----|--9--------|-7--9--7--9-|-10----|
|---------------|-----------|------------|-------|


  E  Q  E  H       W          E  Q  E  H       W
|---------------|-----------|---------------|-------|
|---------------|-----------|---------------|-11----|
|---------------|-----------|---------------|-11----|
|-9-11--9-11----|-11--------|-9-11--9-11----|-12----|
|-7--9--7--9----|--9--------|-7--9--7--9----|-13----|
|---------------|-----------|---------------|-------|


 [2:34] SOLO
   S  S  S  S  S  S  S  S  S  S  S  S  S  S  S  S    S  S  S  S  S  S  S  S  S  S  S  S  S  S  S  S
|----------12-14-15-14-12-------------------------|--------------------------------------------------|
|-12-14-15----------------15-14-12----------------|-------------------12-14-15-14-12-----------------|
|----------------------------------14-12-11-12-14-|----------11-12-14----------------14-12-11-12-14--|
|-------------------------------------------------|-11-12-14-----------------------------------------|
|-------------------------------------------------|--------------------------------------------------|
|-------------------------------------------------|--------------------------------------------------|


   S  S  S  S  S  S  S  S  S  S  S  S  S  S  S  S    W
|----------12-14-15-14-12-14-15-14-12-14-15-14-12-|-14----|
|-12-14-15----------------------------------------|-------|
|-------------------------------------------------|-------|
|-------------------------------------------------|-------|
|-------------------------------------------------|-------|
|-------------------------------------------------|-------|


   E  E  E  E  E  E  E  E    E  E  E  E  E  E  E  E
|-------------------14----|-------------------15----|
|-12----------14----------|-12----------14----------|
|-------13----------------|-------13----------------|
|-------------------------|-------------------------|
|----14----14----14----14-|----14----14----14----14-|
|-------------------------|-------------------------|


               |--3--|              |--3--|
   S  S  S  S  E  E  E  S  S  S  S  E  E  E    W
|-15-15-15-15-15-14-12-22-22-22-22-22-21-19-|-21----|
|-------------------------------------------|-------|
|-------------------------------------------|-------|
|-------------------------------------------|-------|
|-------------------------------------------|-------|
|-------------------------------------------|-------|


   |--3--|  |--3--|  |--3--|  |--3--|    |--3--|  |--3--|  |--3--|  |--3--|
   E  E  E  E  E  E  E  E  E  E  E  E    E  E  E  E  E  E  E  E  E  E  E  E
|-14h19p14----------14h19p14----------|-14h19p14----------14h19p14----------|
|-------------------------------------|-------------------------------------|
|----------16p14h16----------16p14h16-|----------16p14h16----------16p14h16-|
|-------------------------------------|-------------------------------------|
|-------------------------------------|-------------------------------------|
|-------------------------------------|-------------------------------------|


   |--3--|  |--3--|  |--3--|  |--3--|    |--3--|  |--3--|  |--3--|  |--3--|
   E  E  E  E  E  E  E  E  E  E  E  E    E  E  E  E  E  E  E  E  E  E  E  E
|-15h21p15----------15h21p15----------|-15h21p15----------15h21p15------------|
|-------------------------------------|---------------------------------------|
|----------18p16h18----------18p16h18-|----------18p16h18----------18p16h18---|
|-------------------------------------|---------------------------------------|
|-------------------------------------|---------------------------------------|
|-------------------------------------|---------------------------------------|


   |--3--|  |--3--|  |--3--|  |--3--|    |--3--|  |--3--|
   E  E  E  E  E  E  E  E  E  E  E  E    E  E  E  E  E  E  H
|-15-14-12-15-14-12-------------------|-------------------------|
|-------------------15-14-12-15-14-12-|-------------------------|
|-------------------------------------|-14-12-11-14-12-11-12----|
|-------------------------------------|-------------------------|
|-------------------------------------|-------------------------|
|-------------------------------------|-------------------------|


   S  S  S  S  S  S  S  S  S  S  S  S  S  S  S  S    E.  E.  E   H
|-------------------14-15-18-15-14----------------|-------------------|
|----------------14----------------14-------------|------------/14----|
|----------11-14----------------------14----------|---------11--------|
|-------11-------------------------------16-------|-----14------------|
|----12-------------------------------------16----|-------------------|
|-14-------------------------------------------17-|-14----------------|


 [2:53]
  S S S S S S S S S S S S S S S S   S S S S S S S S S S S S S S S S
|---------------------------------|----------------------------------|
|---------------------------------|----------------------------------|
|---------------------------------|----------------------------------|
|---------------------------------|----------------------------------|
|-2-2-2-2-2-2-4-4-4-4-4-4-4-4-4-4-|-5-5-5-5-5-5-4-4-4-4-4-4-4-4-4-4--|
|-2-2-2-2-2-2-2-2-2-2-2-2-2-2-2-2-|-2-2-2-2-2-2-2-2-2-2-2-2-2-2-2-2--|


  S S S S S S S S S S S S S S S S   S S S S S S S S S S S S S S S S
|---------------------------------|----------------------------------|
|---------------------------------|----------------------------------|
|---------------------------------|----------------------------------|
|---------------------------------|----------------------------------|
|-5-5-5-5-5-5-4-4-4-4-4-4-2-2-2-2-|-1-1-1-1-1-1-1-1-1-1-1-1-1-1-1-1--|
|-3-3-3-3-3-3-3-3-3-3-3-3-3-3-3-3-|-2-2-2-2-2-2-2-2-2-2-2-2-2-2-2-2--|


  S  S  S  S  S  S  S S S S S S S S S S   S  S  S  S  S  S  S S S S S S S S S S 
|---------------------------------------|---------------------------------------|
|---------------------------------------|---------------------------------------|
|---------------------------------------|---------------------------------------|
|-9--9--9--9--9--9--6-6-6-6-6-6-6-6-6-6-|-9--9--9--9--9--9--6-6-6-6-6-6-6-6-6-6-|
|-11-11-11-11-11-11-6-6-6-6-6-6-6-6-6-6-|-11-11-11-11-11-11-6-6-6-6-6-6-6-6-6-6-|
|---------------------------------------|---------------------------------------|


   S  S  S  S  S  S S S S S S S S S S S   S S S S S S S S S S S S S S S S
|---------------------------------------|----------------------------------|
|---------------------------------------|----------------------------------|
|--9--9--9--9--9--9-7-7-7-7-7-7-6-6-6-6-|-6-6-6-6-6-6-6-6-6-6-6-6-6-6-6-6--|
|-11-11-11-11-11-11-9-9-9-9-9-9-9-9-9-9-|-8-8-8-8-8-8-8-8-8-8-8-8-8-8-8-8--|
|---------------------------------------|----------------------------------|
|---------------------------------------|----------------------------------|


 [3:14]
  Q  E S S E Q  E   +Q   E S S E  Q   E    +Q   E S S E  Q   E    +Q   E S S E  Q.
|-----------------|---------------------|----------------------|----------------------|
|-----------------|---------------------|----------------------|----------------------|
|-----------------|---------------------|----------------------|----------------------|
|-4----------6--7-|-(7)----------12--11-|-(11)----------12--11-|-(11)----------11-----|
|-2--2-2-2-2-4--5-|-(5)--5-5-5-5-10---9-|--(9)--9-9-9-9-10---9-|--(9)--9-9-9-9--9-----|
|-----------------|---------------------|----------------------|----------------------|


  Q  E S S E Q  E   +Q   E S S E Q  E   +Q   E S S E Q  E   +Q   E S S E Q.
|-----------------|-------------------|-------------------|--------------------|
|-----------------|-------------------|-------------------|--------------------|
|-----------------|-------------------|-------------------|--------------------|
|-4----------6--7-|-(7)---------------|-------------------|--------------------|
|-2--2-2-2-2-4--5-|-(5)--5-5-5-5-5--4-|-(4)----------5--4-|-(4)----------4-----|
|-----------------|--------------3--2-|-(2)--2-2-2-2-3--2-|-(2)--2-2-2-2-2-----|


 [3:22]
  Q  E S S E  Q   E    +Q   E S S E Q  E   +E  E E E E Q  E   +E  E E E E Q  E
|-------------------|--------------------|-------------0----|-------------0-----|
|-------------------|--------------------|-----------0------|-----------0-------|
|-------------------|--------------------|---------6------6-|-(6)-----6------6--|
|-9----------11--12-|-(12)----------7--6-|-(6)---5----------|-------5-----------|
|-7-----------9--10-|-(10)----------5--4-|-(4)-4------------|-----4-------------|
|----0-0-0-0--------|-------0-0-0-0------|------------------|-------------------|


   [3:51]
    Gtr II (clean)
    E   E   E   E   Q       E   E     E   E   E   E   Q       E   E
||------------------0---------------|-----------------0---------------|
||o---------3---------------3-------|---------3---------------3-------|
||------4-------4---------------4---|-----4-------4---------------4---|
||--4-------------------------------|-4-------------------------------|
||o---------------------------------|---------------------------------|
||----------------------------------|---------------------------------|
|
|   Gtr I
|   S S S S S S S S S S S S S S S S   S S S S S S S S S S S S S S S S
||----------------------------------|---------------------------------|
||o---------------------------------|---------------------------------|
||----------------------------------|---------------------------------|
||----------------------------------|---------------------------------|
||o---------------------------------|---------------------------------|
||--2-2-2-2-2-2-2-2-2-2-2-2-2-2-2-2-|-2-2-2-2-2-2-2-2-2-2-2-2-2-2-2-2-|


  1.,2.,3.
  E   E   E   E   Q       E   E     E   E   E   E   E   E   E   E     4x
|-----------------0---------------|-0---3---2---3---0---3---2---3-----||
|---------3---------------3-------|----------------------------------o||
|-----4-------4---------------4---|-----------------------------------||
|-4-------------------------------|-----------------------------------||
|---------------------------------|----------------------------------o||
|---------------------------------|-----------------------------------||
|
| S S S S S S S S S S S S S S S S   S S S S S S S S S S S S S S S S   4x
|---------------------------------|-----------------------------------||
|---------------------------------|----------------------------------o||
|---------------------------------|-----------------------------------||
|---------------------------------|-----------------------------------||
|---------------------------------|----------------------------------o||
|-3-3-3-3-3-3-3-3-3-3-3-3-3-3-3-3-|-6-6-6-6-6-6-6-6-6-6-6-6-6-6-6-6---||


  4.
  E Q  E  Q  E E   +E  E Q  Q  Q
|--------------6-|-(6)------6--9--|
|----------------|-----7-8--------|
|------7-10--7---|----------------|
|-8-9------------|----------------|
|----------------|----------------|
|----------------|----------------|

REPEAT VERSE, PRE-CHORUS AND CHORUS (see [1:08] until [2:24])

 [4:39] AFTER FINAL CHORUS
  S S S S E S S S S  E S S S S   E S S S S Q.   Q
|------------------------------|-------------------|
|------------------------------|-------------------|
|---------9---------11---------|-9---------6----3--|
|---------9---------11---------|-9---------5----2--|
|------------------------------|-------------------|
|-0-0-0-0---0-0-0-0----0-0-0-0-|---0-0-0-0---------|


  S S S S E S S S S  E S S S S   E S S S S Q.   Q
|------------------------------|---------------------|
|------------------------------|---------------------|
|---------9---------11---------|-9---------6----3----|
|---------9---------11---------|-9---------5----2----|
|------------------------------|---------------------|
|-0-0-0-0---0-0-0-0----0-0-0-0-|---0-0-0-0-----------|


  Gtr I
  S S S S E S S S S  E S S S S   E S S S S Q.   Q    E E  E E E  E E  E    E    E     E  E  Q     Q
|------------------------------|-------------------|--------------------|------------------------------|
|------------------------------|-------------------|--------------------|------------------------------|
|---------9---------11---------|-9---------6----3--|--------------------|------------------------------|
|---------9---------11---------|-9---------5----2--|---9-11---9-12------|------------------------------|
|------------------------------|-------------------|---7--9---7-10------|--2----------1--0--4s====7----|
|-0-0-0-0---0-0-0-0----0-0-0-0-|---0-0-0-0---------|-0------0------0--3-|-------3-----------3s====6----|
| 
| Gtr II                                                                   |---3---|
| W                              W                   H        Q    E  E    E  E    E  E  E  E  E  E  E
|------------------------------|-------------------|--------------------|------------------------14-15-|
|------------------------------|-------------------|--------------------|------------------------------|
|------------------------------|-------------------|-----------------14-|-14h15p==14----14-15----------|
|------------------------------|-------------------|--------------------|------------17-------17-------|
|------------------------------|-------------------|--------------------|------------------------------|
|------------------------------|-------------------|--------------------|------------------------------|


 [4:48]
  E  Q  E  Q   Q     W           Q  Q  Q  Q    Ring out
|-----------------|-----------|-----------0--*|
|-----------------|-11--------|--------0-----*|
|-----------------|-11--------|-----3--------*|
|-9-11--9-11--11--|-12--------|-\4-----------*|
|-7--9--7--9---9--|-13--------|--------------*|
|-----------------|-----------|--------------*|


Duration Legend
---------------
W - whole; H - half; Q - quarter; E - 8th; S - 16th; T - 32nd; X - 64th; a - acciaccatura
+ - note tied to previous; . - note dotted; .. - note double dotted
Uncapitalized letters represent notes that are staccato (1/2 duration)
Irregular groupings are notated above the duration line
Duration letters will always appear directly above the note/fret number it represents the
duration for.  Duration letters with no fret number below them represent rests.  Multi-
bar rests are notated in the form Wxn, where n is the number of bars to rest for.  Low
melody durations appear below the staff

Tablature Legend
----------------
 h   - hammer-on
 p   - pull-off
 b   - bend
 pb  - pre-bend
 r   - bend release (if no number after the r, then release immediately)
 /\  - slide into or out of (from/to "nowhere")
 s   - legato slide
 S   - shift slide
  - natural harmonic
[n]  - artificial harmonic
n(n) - tapped harmonic
 ~   - vibrato
 tr  - trill
 T   - tap
 TP  - trem. picking
 PM  - palm muting
\n/  - tremolo bar dip; n = amount to dip
 \n  - tremolo bar down
 n/  - tremolo bar up
/n\  - tremolo bar inverted dip
 =   - hold bend; also acts as connecting device for hammers/pulls
 <>  - volume swell (louder/softer)
 x   - on rhythm slash represents muted slash
 o   - on rhythm slash represents single note slash

Misc Legend
-----------
 |  - bar
||  - double bar
||o - repeat start
o|| - repeat end
*|  - double bar (ending)
 :  - bar (freetime)
 $  - Segno
 &  - Coda
Tempo markers -  = BPM(8/16=s8/s16), where s8 = swing 8ths, s16 = swing 16ths
Добавлено: 20.03.2016
Другие материалы по этой песне:
  • Аккорды и текст

Страница создана 20.03.2016
http://primanota.ru/vektor/ultimate-artificer-chords.htm
Привет, Гость.
Предлагаем пройти революционный курс по гитаре.
Подарок от PrimaNota.Ru, забирай!