PrimaNota.ru - самый крупный в мире бесплатный архив песенных текстов, аккордов, табулатур и нот


Veil Of Maya - Mark The Lines - текст песни, таба, видео

Регистрация Запомнить меня
Войти через:  Facebook Google Twitter Vk Yandex Mail.ru

Veil Of Maya - Mark The Lines - текст песни, таба, видео

Печатать
Просмотров: 112
Veil of Maya - Mark The Lines
Tabbed by Anthony D

Video of me playing it:
http://www.youtube.com/watch?v=TC_AegmsZWw

I'm just going to tab each section out once or so because of the amount of riffs, it's 
that hard to figure the rhythms

*=harmonics

---------------------|--------------|
---------------------|--------------|
------------------7--|--------------|
-5-4-1-0-5-4-1-0--4--|--------------|
------------------5--|--0-1-5-4-----|
------------------0--|--0-1-5-4-----|


-------------------------------|
-------------------------------|
----------------5-5------------|
----------------5-5------------|
-0000-0-000000--3-3------------|
-1111-1-111111--2-2------------|

---------------------|-----|
---------------------|-----|
------------------7--|-----|
-5-4-1-0-5-4-1-0--4--|-----|
------------------5--|-----| Dive bomb
------------------0--|--0\-|

Solo type deal, play the first riffs again and such
Yea I played octaves, and I think it sounds better for only one guitar, but this is 
much how Marc plays it.
---------------------------------------------|
--15-13------------------------1515-1313-----|
--------15-14-15-12--14-15-14------------15--|
---------------------------------------------|
---------------------------------------------|
---------------------------------------------|

---------------------------------------------------|
---------15-13-------------------------------------|
--12-14--------15-14-15-12--14-15-14-14-14-11-11---|
---------------------------------------------------|
---------------------------------------------------|
---------------------------------------------------|

------------------------------------------------|
----------10-11-13--15-13-----------------------|
-11-12-14-----------------15-12---11-12-14--14--|
------------------------------------------------|
------------------------------------------------|
------------------------------------------------|

------------------------------------------------|
--15-13-------------------------------10-11-13--|
--------15-15--11-12-11-11---11-12-14-----------|
------------------------------------------------|
------------------------------------------------|
------------------------------------------------|

-------------------------------------------|
--15--15-15-13-----------------------------|
---------------15-15--11-12-14-14----------|
-------------------------------------------|
-------------------------------------------|
-------------------------------------------|

Bend up
-------------22-22-22-22-22-22---------------|
--15--20^-22^-------------------19-20-22-----|
---------------------------------------------|
---------------------------------------------|
---------------------------------------------|
---------------------------------------------|

Just going to tab the parts here, the rhythm is easy
-----------------------------------------|
-----------------------------------------|
-12--14-15-14--11---19-17-11-11-12-14----|
-----------------------------------------|
-10--12-13-12--9----17-15-9--9--10-12----|
-----------------------------------------|

Best break down ever!
---------------------------------|
---------------------------------|
-7------------7------------------|
-5------------5------------------|
-6-00-00--00--6-00-00--00--------|
---00-00--00----00-00--00--------|

I doubt this part is right, but it's the closest I've heard
-------------------------------------|
-------------------------------------|
-------------15--------15----15------|
------17-17--19--------12-12-12------|
----------------17-17-----10---------|
--/17-----------0--0-----------------|

---------------------------------|
---------------------------------|
-7------------7------------------|
-5------------5------------------|
-6-00-00--00--6-00-00--00--------|
---00-00--00----00-00--00--------|


-6-----------------------------|
-10----------------------------|
-------------------------------|
--------5*---------------------|
------5*-----------------------|
----0--------------------------|

---------------------------------|
---------------------------------|
-7------------7------------------|
-5------------5------------------|
-6-00-00--00--6-00-00--00--------|
---00-00--00----00-00--00--------|

--------------------------------|
--------------------------------|
------------15----15------------|
-----17-17--12-12-12------------|
---------------10---------------|
--17----------------------------|

---------------------------6---------|
---------------------------10--------|
-7------------7----------------------|
-5------------5----------------------|
-6-00-00--00--6-00-00--00-----0-00---|
---00-00--00----00-00--00-----0-00---|

----------------------------|------------------------|
----------------------------|------------------------|
----------------------------|--5*-5*5*5*-------------|
----------------------------|-------------7*-7*7*7*--|
-00---0000-00-000000-00-00--|------------------------|
-00---0000-00-000000-00-00--|-0---------0------------|

The rhythm is easy here, just listen for it. It changes like every time though.
---------------------|---------|------------|
---------------------|---------|------------|
---------------------|---------|-----7^-----|
-7---7-----------5---|----7-8--|---5----5---|
-5---5--0-1-4-0--3---|---5-----|-6----------|
-4---4--0-1-4-0--2---|--5------|------------|

Again, the rhythms change, just listen for the changes, the riff stays the same otherwise.
----------------------------------------------|
----------------------------------------------|
----------------------------------------------|
---------------7-----5--5---------------8-----|
----------------------------------------------|
-1-00-1-00--05--5-01--01---1-00-1-00--05--5---|

This fill is harmonized, I play it this way which is the left side guitar. The upper 
there repeats and the rhythms go all weird, just listen for it.
-------------------------------|
-------------------------------|
-------------------------------|
----5--5--578-457--------------|
------------------0-1-4--------|
-01--01-----------0-1-4--------|

-------------------------------------------------|
-------------------------------------------------|
-------------------------------------------------|
--------5--------5-5------------5-----------5-5--|
-0-1-4--3--0-1-4-3-3------------3-----------3-3--|
-0-1-4--2--0-1-4-2-2--00-11-44--2--00-11-44-2-2--|

          This is not 100%, I've tried to figure it out too many times.
---------|-----------------------------------------------|
---------|-----------------------10----------------------|
---------|--------------------------12-11-------12--11---|
---------|-12--------12-------------------12-------------|
-0-1-00--|-----0-000-----0-000----------------13--12-----|
-0-1-00--|-13--0-000-13--0-000---------------------------|

The ending chords aren't right, but they sound decent.
-------------------------------------|
-------------------------------------|
------------------------14-14-14-----|
-12--------12------------------------|
-----0-000-----0-000--0-12-12-12-----|
-13--0-000-13--0-000--0-0--0--0------|


--22---------18-------------------------|
-------20---------23----22---20---------|
----19----19---19----19---19----19------|
----------------------------------------|
----------------------------------------|
----------------------------------------|

-------------------------------|
-------------------------------|
-15-14-12--11-12-14------------|
-------------------------------|
-13-12-10--9--10-12------------|
-------------------------------|

-------------------------------|
-------------------------------|
-----7-----7-------------------|
---5-----5-------7-8-7---------|
-6-----3-------5------5--------|
-------------5-----------------|

(listen for the rhythm)
---------------------------|-----------------|
--------------3-4-6--------|-----------------|
-7-77-77----7-----------5^-|-----------------|
-5-55-55---5-----------5--5|------------12---|
-6-66-66--6----------------|------10-12------|
---------------------5-----|-1-0-------------|

---------------------------14--|
---------------------15-16-----|
-12--14--19----14-15-----------|
-------------------------------|
-10--12--17--------------------|
-------------------------------|

----------15-17-18-17-----------------|
-13-15-16-----------------------------|
--------------------------------------|
--------------------------------------|
----------------------0000-0000-00----|
----------------------0000-0000-00----|


The arpeggio is correct, the part after I'm not so sure.
---------14-17-t22----151413-14----------|
-------15-----------------------15-14----|
-----14------------------------------14--|
---16------------------------------------|
-17--------------------------------------|
-----------------------------------------|


--------------------151718-141517-14\--17\-------|
--------------151718-----------------------------|
--------141517-----------------------------------|
-------------------------------------------------|
-0-000-------------------------------------------|
-0-000-------------------------------------------|

-------------------------------------|
-------------------------------------|
----7---7--------7---7---------------|
---5---5----7---5---5----7-8-7-5-4---|
--6---3----5---6---3----5------------|
----------5------------5-------------|
Добавлено: 20.07.2012
Другие материалы по этой песне:

Страница создана 11.05.2012
http://primanota.ru/veil-of-maya/mark-the-lines-chords.htm
Привет, Гость.
Предлагаем пройти революционный курс по гитаре.
Подарок от PrimaNota.Ru, забирай!