PrimaNota.ru - самый крупный в мире бесплатный архив песенных текстов, аккордов, табулатур и нот


Vegh Tamas - Fizz - таба, видео

Регистрация Запомнить меня
Войти через:  Facebook Google Twitter Vk Yandex Mail.ru

Vegh Tamas - Fizz - таба, видео

Печатать
Просмотров: 55
Hi!

Mz Name> Tom Endh
E-mail> tomi@enterprise.vpszk.bme.hu

My favorite player is Vegh Tamas, he is a famous hungaryan artist.

Song title: Fizz

Intro:

  Dm                       Am                            2x
e----1----1----1----1--------------0----0----0----0------
B----------------------3----------------------------1----
G-2----2----2----2--------------2----2----2----2---------
D-0------------------------------------------------------
A----------------------------0---------------------------
E--------------------------------------------------------
  Dm                 Am                
e-----1---1---------------0---0---------
B-----------3---3---------------1---1---
G---2---2-----2---------2---2-----2-----
D-0-------------------------------------
A---------------------0-----------------
E---------------------------------------

   F                              D
e------1----1-------------------1----0----------2--------
B-------------1---------1--------------3------3---3------
G----2---2------2-----2---2---2----2--------2-------2----
D--3----------------3-------3------------0------------0--
A--------------------------------------------------------
E--------------------------------------------------------

  C                   
e---------0-----------
B---1---------1-------
G-------0-------0-----
D-----2-----2---------
A-3---------------3---
E---------------------

  E                 Em  
e--------------------------------------------
B-0------------------------------------------
G--------1-----1-----------------0-----------
D---2--------2-----------------2--------2----
A-----2----2-----------------2--------2------
E----------------0-------0-0--------0-----0--

   B                 C                D                E 
e-----------------------------------------------------------------
B-----------------------------------------------------------------
G--------4-----------------5----------------7-----7----9-4-7-5-2--
D------4------4----------5-----5----------7-----7------9-4-7-5-2--
A----2----------4------3-----3-----3----5-----5--------7-2-5-3-0--
E--2--------2-----2--3-----------3----5-------------5--0-2-5-3-0--
                                                       Heavy d.
Thema
  Riff1
e----------------------------------------------------------------------
B----------------------------------------------------------------------
G-9-99-99-9999--4-44-44-4444--7-77-77-7777--5-55-55-5555--2-22-22-2222-
D-9-99-99-9999--4-44-44-4444--7-77-77-7777--5-55-55-5555--2-22-22-2222-
A-7-77-77-7777--2-22-22-2222--5-55-55-5555--3-33-33-3333--0-00-00-0000-
E-7-77-77-7777--2-22-22-2222--5-55-55-5555--3-33-33-3333--0-00-00-0000-
 pm...................................................................
  Riff2                                                           4x
e--------------------------------------------------------------------
B-----------harm------------harm----------------------------harm-----
G------------ 5>------------ 5>----------------------------- 5>------
D------------ 5>------------ 5>----------------------------- 5>------
A-2-22-22-22-----2-22-22-22-----5-55-55--444-44--2-22-22-22----------
E-0-00-00-00-----0-00-00-00-----3-33-33--222-22--0-00-00-00----------
pm..........     ..........     ...........................

Then repeat the whole thing!
I hope its correkt.

By all! Tom Endh


     
Добавлено: 24.11.2013
Другие материалы по этой песне:
  • Аккорды и текст

Страница создана 24.11.2013
http://primanota.ru/vegh-tamas/fizz-chords.htm
Привет, Гость.
Предлагаем пройти революционный курс по гитаре.
Подарок от PrimaNota.Ru, забирай!