PrimaNota.ru - самый крупный в мире бесплатный архив песенных текстов, аккордов, табулатур и нот


Veer Union - Im Sorry - таба, видео

Регистрация Запомнить меня
Войти через:  Facebook Google Twitter Vk Yandex Mail.ru

Veer Union - Im Sorry - таба, видео

Печатать
Просмотров: 280
Уроки эстрадного вокала в Санкт-Петербурге
                 I'm Sorry/The Veer Union/Against The Grain
                              Tuning: DADGBE
                         PLEASE leave feedback ;)

INTRO
E---------1---------------1-----------1---1-----------1---1-------|
B---1-------1---1---1-------1---1---1-------1---1---1-------1---1-|
G-----------------------------------------------------------------|
D-----3---------------3-----------0-----0-----0-------------------|  x2
A-1-----1-----1---1-----1-----1-------------------3-----3-----3---|
D-----------------------------------------------------------------|

VERSE
E-------------------------3-3-----|
B-6-6-6-5-5-5-6-6-6-5-5-5-----5-5-|
G---------------------------------|
D---------------------------------|  x4
A---------------------------------|
D---------------------------------|
  . . . . . . . . . . . . . . . . --(lightly muted)

E---------------------------------|
B-6-6-6-5-5-5-6-6-6-5-5-5-6-6-5-5-|
G---------------------------------|
D---------------------------------|  x2
A---------------------------------|
D---------------------------------|
            (unmuted)

CHORUS
E(13)-------------------------(17)-----------------------|
B--------------------------------------------------------|
G--------------------------------------------------------|
D-3----3----3--3-3----3-3-3----0----0----0--0-0----0-0-0-|
A-3----3----3--3-3----3-3-3----0----0----0--0-0----0-0-0-|
D-3----3----3--3-3----3-3-3----0----0----0--0-0----0-0-0-|

E(20)-------------------------(15)-------------------------------|
B----------------------------------------------------------------|
G----------------------------------------------------------------|
D-8----8----8--8-8----8-8-8----10----10----10--10-10----10-10-10-|
A-8----8----8--8-8----8-8-8----10----10----10--10-10----10-10-10-|
D-8----8----8--8-8----8-8-8----10----10----10--10-10----10-10-10-|
 (parenthesized notes are played by second guitar)

E---------------------------------|
B---------------------------------|
G---------------------------------|
D-3----3----3-3-10--10--10--10--5-|
A-3----3----3-3-10--10--10--10--5-|
D-3----3----3-3-10--10--10--10--5-|

SOLO FILL
E---------------------------------------------------|
B-/18-18-18-18-18/17-17-17-17/13-13-13-13-----------|
G-----------------------------------------14-14~----|
D---------------------------------------------------|
A---------------------------------------------------|
D---------------------------------------------------|

E----------------------------17-17b18r17~----|
B-18-18-18/17-17-17-13-13-13-----------------|
G--------------------------------------------|
D--------------------------------------------|
A--------------------------------------------|
D--------------------------------------------|

VERSE
E-------------------------3-3-----|
B-6-6-6-5-5-5-6-6-6-5-5-5-----5-5-|
G---------------------------------|
D---------------------------------|  x4
A---------------------------------|
D---------------------------------|
  . . . . . . . . . . . . . . . . --(lightly muted)

HEAVY VERSE
E-----------------------------------------------------------------|
B-----------------------------------------------------------------|
G-----------------------------------------------------------------|
D-3-3-3-3-3-3-3-3-3-3-3-3-3-3-3-3-7-7-7-7-7-7-7-7-5-5-5-5-5-5-5-5-|
A-1-1-1-1-1-1-1-1-1-1-1-1-1-1-1-1-5-5-5-5-5-5-5-5-3-3-3-3-3-3-3-3-|
D-----------------------------------------------------------------|
    . .   . .       . .   . .       . .   . .       . .   . .

E-------------------------------------------------|
B-------------------------------------------------|
G-------------------------------------------------|
D-5-5-5-5-5-5-5-5-5-5-5-5-5-5-5-5-8-8-8-8-8-8-8-8-|
A-5-5-5-5-5-5-5-5-5-5-5-5-5-5-5-5-8-8-8-8-8-8-8-8-|
D-5-5-5-5-5-5-5-5-5-5-5-5-5-5-5-5-8-8-8-8-8-8-8-8-|
    . .   . .       . .   . .     --(crescendo)--
CHORUS
E(13)-------------------------(17)-----------------------|
B--------------------------------------------------------|
G--------------------------------------------------------|
D-3----3----3--3-3----3-3-3----0----0----0--0-0----0-0-0-|
A-3----3----3--3-3----3-3-3----0----0----0--0-0----0-0-0-|
D-3----3----3--3-3----3-3-3----0----0----0--0-0----0-0-0-|

E(20)-------------------------(15)-------------------------------|
B----------------------------------------------------------------|
G----------------------------------------------------------------|
D-8----8----8--8-8----8-8-8----10----10----10--10-10----10-10-10-|
A-8----8----8--8-8----8-8-8----10----10----10--10-10----10-10-10-|
D-8----8----8--8-8----8-8-8----10----10----10--10-10----10-10-10-|

E--------------------------------------------------------|
B--------------------------------------------------------|
G--------------------------------------------------------|
D-3----3----3--3-3----3-3-3----0----0----0--0-0----0-0-0-|
A-3----3----3--3-3----3-3-3----0----0----0--0-0----0-0-0-|
D-3----3----3--3-3----3-3-3----0----0----0--0-0----0-0-0-|

E--------------------------------------------------------|
B--------------------------------------------------------|
G--------------------------------------------------------|
D-8----8----8--8-8----8-8-8----8----8----8--8-8----8-8-8-|
A-8----8----8--8-8----8-8-8----8----8----8--8-8----8-8-8-|
D-8----8----8--8-8----8-8-8----7----7----7--7-7----7-7-7-|

E---------------------------|
B---------------------------|
G---------------------------|
D-6--6--6--6--1--1--1--1--8-|
A-6--6--6--6--1--1--1--1--8-|
D-6--6--6--6--1--1--1--1--8-|

PRE-SOLO
E---------1---------------1-----------1---1-----------1---1-------|
B---1-------1---1---1-------1---1---1-------1---1---1-------1---1-|
G-----------------------------------------------------------------|
D-----3---------------3-----------0-----0-----0-------------------|
A-1-----1-----1---1-----1-----1-------------------3-----3-----3---|
D-----------------------------------------------------------------|

E-1-------------------------------1---------------1---------------|
B-1-------------------------------1---------------1---------------|
G-3-------------------------------3---------------3---------------|
D-3-------------------------------0---------------3---------------|
A-1-----------------------------------------------3---------------|
D-----------------------------------------------------------------|

GUITAR SOLO
E---------------------------------------------------|
B-/18-18-18-18-18/17-17-17-17/13-13-13-13-----------|
G-----------------------------------------14-14~----|
D---------------------------------------------------|
A---------------------------------------------------|
D---------------------------------------------------|

E----------------------------17-17b18r17~-----------|
B-18-18-18/17-17-17-13-13-13------------------------|
G---------------------------------------------------|
D--------------------------------------------8--8---|
A--------------------------------------------8--8---|
D--------------------------------------------8--8---|

CHORUS x3
E(13)-------------------------(17)--------------------------------|
B-----------------------------------------------------------------|
G-----------------------------------------------------------------|
D-3----3----3--3-3----3-3-3----0----0----0--0-0----0-0-0----------|
A-3----3----3--3-3----3-3-3----0----0----0--0-0----0-0-0----------|
D-3----3----3--3-3----3-3-3----0----0----0--0-0----0-0-0----------|
                                                                 x3
E(20)-------------------------(15)--------------------------------|   
B-----------------------------------------------------------------|  
G-----------------------------------------------------------------| 
D-8----8----8--8-8----8-8-8----10----10----10--10-10----10-10-10--|
A-8----8----8--8-8----8-8-8----10----10----10--10-10----10-10-10--|
D-8----8----8--8-8----8-8-8----10----10----10--10-10----10-10-10--|

E--------------------------------------------------------|
B--------------------------------------------------------|
G--------------------------------------------------------|
D-3----3----3--3-3----3-3-3----0----0----0--0-0----0-0-0-|
A-3----3----3--3-3----3-3-3----0----0----0--0-0----0-0-0-|
D-3----3----3--3-3----3-3-3----0----0----0--0-0----0-0-0-|

E--------------------------------------------------------|
B--------------------------------------------------------|
G--------------------------------------------------------|
D-8----8----8--8-8----8-8-8----8----8----8--8-8----8-8-8-|
A-8----8----8--8-8----8-8-8----8----8----8--8-8----8-8-8-|
D-8----8----8--8-8----8-8-8----7----7----7--7-7----7-7-7-|

E---------------------------|
B---------------------------|
G---------------------------|
D-6--6--6--6--1--1--1--1--8-|
A-6--6--6--6--1--1--1--1--8-|
D-6--6--6--6--1--1--1--1--8-|

OUTRO
E---------1---------------1-----------1---1-------------1-----1-----------1-|
B---1-------1---1---1-------1---1---1-------1---1----1-----------1-----1--1-|
G-------------------------------------------------------------------------3-|
D-----3---------------3-----------0-----0-----0---------------------------3-|
A-1-----1-----1---1-----1-----1-------------------3--------3--------3-----1-|
D---------------------------------------------------------------------------|
Добавлено: 07.03.2012
Другие материалы по этой песне:
  • Аккорды и текст

Страница создана 07.03.2012
http://primanota.ru/veer-union/im-sorry-chords.htm
Привет, Гость.
Предлагаем пройти революционный курс по гитаре.
Подарок от PrimaNota.Ru, забирай!