PrimaNota.ru - самый крупный в мире бесплатный архив песенных текстов, аккордов, табулатур и нот


Vector - Mouldering Bodies - таба, видео

Регистрация Запомнить меня
Войти через:  Facebook Google Twitter Vk Yandex Mail.ru

Vector - Mouldering Bodies - таба, видео

Печатать
Просмотров: 126
Author/Artist: Vector
Title: Mouldering Bodies
Album: Mouldering Bodies
Transcribed by: Martin Rojek
Email: MartinRojek@web.de

Lyrics:


CROUCHING MIST OVER DUSTY FIELDS 
SMELL OF DEATH SPEAKING PURE MY FEAR 
NO LIGHT IN THE SKY NO SUN IS SEEN 
THE COMMING DARKNESS JUST ARRIVING HERE 

(CHORUS) 
MOULDERING BODIES LIEING IN THIS FIELD 
HERE‘S A GRAVEYARD BUT NO CROSSES OVER THERE 
MOULDERING BODIES - MY HEARD BEGINS TO FREEZE 
THEY SHOULD BE BURNED BUT I COULD NOT DARE 

FEAR AND SADNESS I AM FEELING NOW 
STALKING FIGURES MOVE IN TWIST 
THERE WAS A BATTLE OR A RECKLESS SLAUGHTER 
MAYBE A KIND OF SICKNESS IN THIS MIST 

(CHORUS) 

HELPLESS MINDS ARE FLYING AROUND 
HELPLESS SOULS TRYING TO ESCAPE 
I HEAR SOUNDLESS CRIES THEIR SILENT SCREAM 
OVERWHELMING FEAR AND RISING FADE 

(CHORUS) 

STANDING READY TO DIG SOME GRAVES 
FOR THE DEAD I SHOULD A LAST TIME PRAY 
SOMETHING WICKED I BEGIN TO FEEL 
FOR APPEARING BLESSED NOW I HAVE TO PAY 

SUDDENLY THE DEATH APPEARED 
AND SATAN‘S CRUEL DEVOUR 
REVELATED NOW IS ME 
AND THE BLESSED HOUR 

DEVASTATOR OF MY LIFE 
DESTROYER OF THESE SOULS 
THE MISERY RECOVERS NOW 
THE BODIES START TO RISE 

(CHORUS) 



                             Vector - Mouldering Bodies


-7--------5--------5-----3--------2--------2------|---------------------------
----5--------5--------5-----5--------3------------|---------------------------
-------0--------0--------------0--------0-----3---|---------------------------
----------------------------------0---------------|---------------------------
--------------------------------------------------|---------------------------
-0--------0--------------0------------------------|---------------------------
 Intro (clean) 1.Guitar           Play 12x                                    

-12-0-0-10-0-0-8-0-7-0-0-5-0-0-3-0-2-0-0-3-0-0-2-0-3-0-0-5-0-0-7-0------------
------------------------------------------------------------------------------
------------------------------------------------------------------------------
------------------------------------------------------------------------------
------------------------------------------------------------------------------
------------------------------------------------------------------------------
 2nd Guitar (Intro)                Play 2x                                    

-3--2----0-0-2--3--5-7--10--12-14--15-14-12-14---15-14-12-10-12-10------------
-------------3----------------------------------------------------------------
------------------------------------------------------------------------------
------------------------------------------------------------------------------
------------------------------------------------------------------------------
------------------------------------------------------------------------------
                                                                              

-------------------------------7-7---5--|-------------------------------------
-13-12-10-12--13-12-10---------8-8---7--|-------------------------------------
-----------------------12-11---9-9---7--|-------------------------------------
-------------------------------------0--|-------------------------------------
----------------------------------------|-------------------------------------
----------------------------------------|-------------------------------------
                                                                              

-----------------------------------------------|------------------------------
-----------------------------------------------|------------------------------
-----------------------------------------------|------------------------------
-2--2--4-5--4--2--2--4-5--4--2--2--4-5--2-3/-7-|------------------------------
-2--2--4-5--4--2--2--4-5--4--2--2--4-5--2-3/-7-|------------------------------
-0--0--2-3--2--0--0--2-3--2--0--0--2-3--0-1/-5-|------------------------------
 Chorus (1. Guitar)         Play 2x                                           

--------------------------------------------|---------------------------------
--------------------------------------------|---------------------------------
--------------------------------------------|---------------------------------
--------------------------------------------|---------------------------------
-------0-2--0-------0-2--0-------0-2------3-|---------------------------------
--3--3---------3--3---------3--3-----0-1----|---------------------------------
 Chorus(2. Guitar)  2nd time                                                  

----------------------------------|-------------------------------------------
----------------------------------|-------------------------------------------
----------------------------------|-------7---------5-----0-------------------
-9---9-7-----7---5---5-4-----4----|-9-----7---------7-----4-------------------
---7-----7-7---7---7-----5-5---5--|-7-----7---------5-----5-------------------
----------------------------------|-------------------------------------------
 Verse 2 (1.Guitar)   play 8x       Verse 2 (2.Guitar) after 4th time         

------------------------------------------------------------------------------
---------------------------------------------------8-7---8-7---8-7------------
----------------------------------------/9-9-9-7-------9-----9-----9----------
-----7-5b--5---5---------------7-5-5b5b---------------------------------------
-7h5---------7---7--5\-2-/-7h5------------------------------------------------
-----------------------0------------------------------------------------------
  SOLO                                                                        

------------------------------------------------------------------------------
-8-8/10-----------------------------------------------------------------------
----------------12-14-14b14b---12---12----------------------------------------
----------12h14------------------14----14-12---12h14--14-14-14-12-------------
------------------------------------------------------------------14----------
------------------------------------------------------------------------------
                                                                              

----------------------------/12--12-12-12-10----------------------------------
---------------------------------------------12-12--11--10--------------------
-----------------------------------------------------------12-9-12------------
-12h14--14-14-14-14-12--------------------------------------------------------
-----------------------14-----------------------------------------------------
------------------------------------------------------------------------------
                                                                              

--------------------------------||---------------------------------||---------
--------------------------------||---------------------------------||---------
-11h12-11-9-7-9---7---9p7---7-9-||---------------------------------||---------
--------------------------9-----||-3-3-3-3-3-3-3-3-3-3-3-3-3-3-3-3-||-5-5-5-5-
--------------------------------||-3-3-3-3-3-3-3-3-3-3-3-3-3-3-3-3-||-5-5-5-5-
--------------------------------||-1-1-1-1-1-1-1-1-1-1-1-1-1-1-1-1-||-3-3-3-3-
                                   Suddenly the death....     2x              

---------------------------------------------------------||-------------------
---------------------------------------------------------||-------------------
---------------------------------------------------------||-------------------
-5-5-5-5-5-5-5-5-5-5-5-5-7-7-7-7-7-7-7-7-9-9-9-9-9-9-9-9-||-------------------
-5-5-5-5-5-5-5-5-5-5-5-5-7-7-7-7-7-7-7-7-9-9-9-9-9-9-9-9-||-------------------
-3-3-3-3-3-3-3-3-3-3-3-3-5-5-5-5-5-5-5-5-7-7-7-7-7-7-7-7-||-------------------
                                                                              

---------------------------------||-------------------------------------------
---------------------------------||-------------------------------------------
---------------------------------||-------------------------------------------
-9-----7-----7---5-----4-----4---||-9--7--5--2--------------------------------
-7-7-7-7-7-7-7-7-7-7-7-5-7-7-5-7-||-9--7--5--2--------------------------------
---------------------------------||-7--5--3--0--------------------------------
 After the last Chorus                                 END (Lead the sin war) 

Добавлено: 26.03.2012
Вам также может быть интересно:
Другие материалы по этой песне:
  • Аккорды и текст

Страница создана 26.03.2012
http://primanota.ru/vector/mouldering-bodies-chords.htm
Привет, Гость.
Предлагаем пройти революционный курс по гитаре.
Подарок от PrimaNota.Ru, забирай!