PrimaNota.ru - самый крупный в мире бесплатный архив песенных текстов, аккордов, табулатур и нот


Vaya Con Dios - Neh Nah Neh - таба, видео

Регистрация Запомнить меня
Войти через:  Facebook Google Twitter Vk Yandex Mail.ru

Vaya Con Dios - Neh Nah Neh - таба, видео

Печатать
Просмотров: 1378
Уроки эстрадного вокала в Санкт-Петербурге
vaya_con_dios-neh_nah_neh.guitarsolo.tab

jani_bjorklund@yahoo.se

TablEdited by Jan Bjorklund for Petar
Tuning : E A D G B E 	Time Signature: 4/4

 |       |       |       |        |       |       |       |        
|--------------------------------|--------------------------------|
|--------------------------------|--------------------------------|
|--------------------------------|--------------------------------|
|--------------------------------|--------6-----------------------|
|----------------------4-5-------|----8-9---------4---5---6---8---|
|--------------------7-------4-5-|7-------------------------------|

 |       |       |       |        |       |       |       |        
|--------------------------------|--------------------------------|
|--------------------------------|--------------------------------|
|--------------------------------|6---------------------5-6-7-6-4-|
|--------------6-7---7---7-6-7-9-|--------------------------------|
|9---9---9-8-9-------------------|--------------------------------|
|--------------------------------|--------------------------------|

 |       |       |       |        |       |       |       |        
|--------------------------------|7---109-7-5---------------------|
|------------------------------7-|------------9-7-6---8h9---------|
|6-------------------------6-7---|------------------------6-------|
|----9---9---8---9-------9-------|--------------------------------|
|--------------------------------|--------------------------------|
|--------------------------------|--------------------------------|

 |       |       |       |        |       |       |       |        
|5-------5-------5---------------|--------------7-9---------------|
|--------------------------------|7-6-7-9-109-10------------------|
|--------------------------------|--------------------------------|
|--------------------------------|--------------------------------|
|--------------------------------|--------------------------------|
|--------------------------------|--------------------------------|

 |       |       |       |        |       |       |       |        
|--------------------------------|--------------------------------|
|10--9---9---8---9-----------6-7-|9-------------------------------|
|--------------------------------|----------6-7-------------------|
|--------------------------------|--------9-------6-7-9---6-6-----|
|--------------------------------|----------------------------9-9-|
|--------------------------------|--------------------------------|

 |       |       |       |        |       |       |       |        
|--------------------------------|----7-109-------7---------------|
|--------------------------------|6-9---------------------1012109-|
|------------------------------7-|--------------------------------|
|----6---------------------6-9---|--------------------------------|
|------------------------8-------|--------------------------------|
|--------9-------109-8-9---------|--------------------------------|

 |       |       |       |        |       |       |       |        
|--------------------6-9---------|------6-7-------9-7-------------|
|------------------9-----------7-|6-8-9---------------10----------|
|--------------8-9---------6-8---|------------------------8-------|
|----------8-9-----------8-------|--------------------------9-8-6-|
|----6---------------------------|--------------------------------|
|--------------------------------|--------------------------------|

 |       |       |       |        |       |       |       |        
|--------------------------------|--------------------------------|
|--------------------------------|----------------10------9-------|
|--------------------------------|------------7-------------------|
|7---6---9-----------------------|--------7-9---------------------|
|--------------------------------|--5-8---------------------------|
|--------------------------------|7-------------------------------|


Created with TablEdit http://www.tabledit.com/


     
Добавлено: 11.10.2013
Вам также может быть интересно:
Другие материалы по этой песне:
  • Аккорды и текст

Страница создана 11.10.2013
http://primanota.ru/vaya-con-dios/neh-nah-neh-chords.htm
Привет, Гость.
Предлагаем пройти революционный курс по гитаре.
Подарок от PrimaNota.Ru, забирай!