PrimaNota.ru - самый крупный в мире бесплатный архив песенных текстов, аккордов, табулатур и нот


Vaya Con Dios - Nah Nah - бас-таба, видео

Регистрация Запомнить меня
Войти через:  Facebook Google Twitter Vk Yandex Mail.ru

Vaya Con Dios - Nah Nah - бас-таба, видео

Печатать
Просмотров: 584
Уроки эстрадного вокала в Санкт-Петербурге
vaya_con_dios_nah_nah.btab

Basstab by Jan Bjorklund, Finland  jani_bjorklund@yahoo.se>
You are welcome to request for basstabs!
Bienvenidos a pedirme transcripciones para el bajo!
Fingering and positions as suggested by TablEdit. 

TablEdited by Jan Bjorklund
Tuning : E A D G 	Time Signature: 4/4

 |       |       |       |        |       |       |       |        
|--------6-----------------------|--------------------------------|
|--------------------------------|--------------------------------|
|--------------------------------|--------------------------------|
|--------------------------------|--------------------------------|

 |       |       |       |        |       |       |       |        
|--------------------------------|------------------6-------4-----|
|--------------------------------|--------------------------------|
|--------------------------------|--------------------------------|
|--------------------------------|--------------------------------|

 |       |       |       |        |       |       |       |        
|--2---------1-------------------|--------------------------------|
|--------------------4-----------|------------------------4-------|
|--------------------------------|------4-------------------------|
|--------------------------------|--------------------------------|

 |       |       |       |        |       |       |       |        
|--------------------------------|--------------------------------|
|------------------2-------4-----|------------------------------4-|
|------4---4---------------------|------------4-------------------|
|--------------------------------|--------------------------------|

 |       |       |       |        |       |       |       |        
|--------------------------------|--------------------------------|
|------------------------4-------|--------------------------------|
|------------4---4---------------|4-------------------------------|
|--------------------------------|------------------4-------------|

 |       |       |       |        |       |       |       |        
|--------------------------------|--------------------------------|
|--------------------------------|--------------------------------|
|----4-------------------------2-|------4-------------------------|
|------------------4---4---------|------------------------4-------|

 |       |       |       |        |       |       |       |        
|--------------------------------|--------------------------------|
|--------------------------------|------------4-------------------|
|----------4---------------------|----4-------------------------4-|
|------------------------4---4---|--------------------------------|

 |       |       |       |        |       |       |       |        
|--------------------------------|--------------------------------|
|----------------4---------------|----------2---------4-----------|
|------------------------------4-|--4-----------------------------|
|--------------------------------|--------------------------------|

 |       |       |       |        |       |       |       |        
|--------------------------------|--------------------------------|
|----------------------4---------|----------------4---------------|
|----4---------------------------|----4---------------------4-----|
|--------------------------------|--------------------------------|

 |       |       |       |        |       |       |       |        
|--------------------------------|--------------------------------|
|--------------------------------|--------------------------------|
|----------------------------4---|----------------------2---------|
|----------4---------------------|----------4---4-----------------|

 |       |       |       |        |       |       |       |        
|--------------------------------|--------------------------------|
|--------------------------------|--------------------------------|
|4-------------------------------|--4-------------------------4---|
|----------------4---------------|----------------4---4-----------|

 |       |       |       |        |       |       |       |        
|--------------------------------|--------------------------------|
|------4-------------------------|--------4-----------------------|
|----------------------4---------|----------------------4---------|
|--------------------------------|--------------------------------|

 |       |       |       |        |       |       |       |        
|--------------------------------|--------------------------------|
|--2---------4-------------------|--------------4-----------------|
|4---------------------------4---|------------------------------4-|
|--------------------------------|--------------------------------|

 |       |       |       |        |       |       |       |        
|--------------------------------|--------------------------------|
|--------4-----------------------|--------------------------------|
|------4-----------4-------------|--------------------4-----------|
|--------------------------------|----4---------------------------|

 |       |       |       |        |       |       |       |        
|--------------------------------|--------------------------------|
|--------------------------------|--------------------------------|
|--------------2---------4-------|--------------------------4-----|
|----4-------4-------------------|----------4---------------------|

 |       |       |       |        |       |       |       |        
|--------------------------------|--------------------------------|
|------------------------------4-|--------------------------------|
|----------------------4---------|----------------4---------------|
|----------4-------4-------------|--------------------------------|

 |       |       |       |        |       |       |       |        
|--------------------------------|--------------------------------|
|4---------------------------2---|----4---------------------------|
|----------------4-------4-------|----------------------4---------|
|--------------------------------|--------------------------------|

 |       |       |       |        |       |       |       |        
|--------------------------------|--------------------------------|
|------4-------------------------|--4-----------------------------|
|----------------------4-------4-|----------4---------------------|
|--------------------------------|----------------------------4---|

 |       |       |       |        |       |       |       |        
|--------------------------------|--------------------------------|
|--------------------------------|--------------------------------|
|------------4-------------------|--------2-------4---------------|
|----------------------------4---|----4---------------------------|

 |       |       |       |        |       |       |       |        
|--------------------------------|--------------------------------|
|--------------------------------|--------------------------------|
|--------------------4-----------|--------------2-------4---------|
|--4-----------------------------|--4-------4---------------------|

 |       |       |       |        |       |       |       |        
|--------------------------------|--------------------------------|
|--------------------------------|--------------------------------|
|--------------------------4-----|--------------------2-------4---|
|--------4-----------------------|--------4-------4---------------|

 |       |       |       |        |       |       |       |        
|--------------------------------|--------------------------------|
|--------------------------------|--------------------------------|
|--------------------------------|4-------------------------4-----|
|--------------4-----------------|--------------4-------4---------|

 |       |       |       |        |       |       |       |        
|--------------------------------|--------------------------------|
|--------------------------------|--------------------------------|
|--2-----------------------------|------2-------------------------|
|--------------------2-----------|--------------------2-------2---|

 |       |       |       |        |       |       |       |        
|--------------------------------|--------------------------------|
|--------------------------------|--------------------------------|
|0-------2-----------------------|------------2-------------------|
|--------------------------2-----|--------------------------2-----|

 |       |       |       |        |       |       |       |        
|--------------------------------|--------------------------------|
|--------------------------------|--------------------------------|
|------2-------4-----------------|4-----------------4-------------|
|--2-----------------------------|--------------------------------|

 |       |       |       |        |       |       |       |        
|--------------------------------|------------------------6-------|
|--------------------------------|--------------------------------|
|----4---------------4---------4-|----------------4---------------|
|--------------------------------|--------------------------------|

 |       |       |       |        |       |       |       |        
|4---------2-------1-------------|--------------------------------|
|--------------------------4-----|------------------------------4-|
|--------------------------------|------------4-------------------|
|--------------------------------|--------------------------------|

 |       |       |       |        |       |       |       |        
|--------------------------------|--------------------------------|
|------------------------2-------|4-------------------------------|
|------------4---------4---------|------------------4-------------|
|--------------------------------|--------------------------------|

 |       |       |       |        |       |       |       |        
|--------------------------------|--------------------------------|
|----4-------------------------4-|--------------------------------|
|------------------4---------4---|--------4-----------------------|
|--------------------------------|------------------------4-------|

 |       |       |       |        |       |       |       |        
|--------------------------------|--------------------------------|
|--------------------------------|--------------------------------|
|----------4---------------------|----2---------4-----------------|
|------------------------4-------|--4---------------------------4-|

 |       |       |       |        |       |       |       |        
|--------------------------------|--------------------------------|
|--------------------------------|--------------------4-----------|
|----------------4---------------|----------4---------------------|
|------------------------------4-|--------4-----------------------|

 |       |       |       |        |       |       |       |        
|--------------------------------|--------------------------------|
|----------------------4---------|----------------2---------4-----|
|----4---------------------------|----4---------4-----------------|
|--------------------------------|--------------------------------|

 |       |       |       |        |       |       |       |        
|--------------------------------|--------------------------------|
|----------------------------4---|----------------------4---------|
|----------4---------------------|------------4-------4-----------|
|--------------------------------|--------------------------------|

 |       |       |       |        |       |       |       |        
|--------------------------------|--------------------------------|
|--------------------------------|--------------------------------|
|4-------------------------------|--4-------------------------2---|
|----------------4---------------|------------------4-------4-----|

 |       |       |       |        |       |       |       |        
|--------------------------------|--------------------------------|
|--------------------------------|--------------------------------|
|------4-------------------------|--------4-----------------------|
|------------------------4-------|------------------------4-------|

 |       |       |       |        |       |       |       |        
|--------------------------------|--------------------------------|
|--------------------------------|--------------------------------|
|----2-------4-------------------|--------------4-----------------|
|4-----------------------------4-|------------------------------4-|

 |       |       |       |        |       |       |       |        
|--------------------------------|--------------------------------|
|--------------------------------|--------------------------------|
|----------2-------4-------------|--------------------4-----------|
|------4-------------------------|----4---------------------------|

 |       |       |       |        |       |       |       |        
|--------------------------------|--------------------------------|
|--------------------------------|--------------------------------|
|----------------4-------2-------|--------------------------2-----|
|----4-------4-------------------|----------2---------------------|

 |       |       |       |        |       |       |       |        
|--------------------------------|--------------------------------|
|--------------------------------|--------------------------------|
|----------------------0-------2-|--------------------------------|
|----------2-------2-------------|----------------2---------------|

 |       |       |       |        |       |       |       |        
|--------------------------------|--------------------------------|
|--------------------------------|--------------------------------|
|--2-------------------------2---|----4-----------------4---------|
|----------------2-------2-------|--------------------------------|

 |       |       |       |        |       |       |       |        
|--------------------------------|--------------------------------|
|--------------------------------|--------------------------------|
|--------4---------------4-------|----------4---------4-----------|
|--------------------------------|--------------------------------|

 |       |       |       |        |       |       |       |        
|--------------6-------4---------|--------1-----------------------|
|------------------------------7-|----------------4---------------|
|----4---------------------------|--------------------------------|
|--------------------------------|--------------------------------|

 |       |       |       |        |       |       |       |        
|--------------------------------|--------------------------------|
|--------------------4-----------|--------------2-------4---------|
|--4-----------------------------|--4-------4---------------------|
|--------------------------------|--------------------------------|

 |       |       |       |        
|--------------------------------|
|--------------------------------|
|--------4-----------------------|
|--------------------------------|


Created with TablEdit http://www.tabledit.com/

     
Добавлено: 03.12.2013
Другие материалы по этой песне:
  • Аккорды и текст

Страница создана 03.12.2013
http://primanota.ru/vaya-con-dios/nah-nah-chords.htm
Привет, Гость.
Предлагаем пройти революционный курс по гитаре.
Подарок от PrimaNota.Ru, забирай!