PrimaNota.ru - самый крупный в мире бесплатный архив песенных текстов, аккордов, табулатур и нот


Vast - I Thought By Now - таба, видео

Регистрация Запомнить меня
Войти через:  Facebook Google Twitter Vk Yandex Mail.ru

Vast - I Thought By Now - таба, видео

Печатать
Просмотров: 163
I Thought By Now
VAST


Standard Tuning

Tabbed by: Le Chacal


Nobody has put one up yet, and the videos on youtube are all wrong, so here we go.
d: downstroke ^: upstroke


INTRO/VERSE

   d   d ^ d  d ^  ^d ^  d   d ^  ^d d  d ^ d  d ^ ^d d  ^ d ^
e|-x---x-x-x--x-x--xx-x--x---x-x--xx-x--x-x-x--x-x-xx-x--x-x-x-|
B|-11--11111--1111-xx-10-10--1010-xx-4--4-4-4--4-4-xx-8--8-8-8-|
G|-0---0-0-0--0-0--xx-0--0---0-0--xx-0--0-0-0--0-0-xx-0--0-0-0-|
D|-x---x-x-x--x-x--xx-x--x---x-x--xx-x--x-x-x--x-x-xx-x--x-x-x-|
A|-10--101010-1010-xx-8--8---8-8--xx-3--3-3-3--3-3-xx-6--6-6-6-|
E|-x---x-x-x--x-x--xx-x--x---x-x--xx-x--x-x-x--x-x-xx-x--x-x-x-|

PRE CHORUS:
   d  ^ d ^  d^d^  d ^  d ^ d^  d  d ^ d  ^ d  ^ ^ d ^
e|-x--x-x-x--xxxx--x-x--x-x-xx--1--1-1-1--1-1--1-1-1-1-|
B|-4--4-4-4--xxxx--6-6--6-6-xx--1--1-1-1--1-1--1-1-1-1-|
G|-0--0-0-0--xxxx--0-0--0-0-xx--2--2-2-2--2-2--2-2-2-2-|
D|-x--x-x-x--xxxx--x-x--x-x-xx--3--3-3-3--3-3--3-3-3-3-|
A|-3--3-3-3--xxxx--x-x--x-x-xx--3--3-3-3--3-3--3-3-3-3-|
E|-x--x-x-x--xxxx--6-6--6-6-xx--1--1-1-1--1-1--1-1-1-1-|

CHORUS:
   d  ^ d  d^d^  d  ^ d  d^  d  ^ d  d^d^ d  d ^
e|-3--3-3--xxxx--1--1-1--xx--x--x-x--xxxx-x--x-x-------|
B|-3--3-3--xxxx--1--1-1--xx--4--4-4--xxxx-8--8-8-------|
G|-0--0-0--xxxx--2--2-2--xx--0--0-0--xxxx-0--0-0-------|
D|-x--x-x--xxxx--3--3-3--xx--x--x-x--xxxx-x--x-x-------|
A|-x--x-x--xxxx--3--3-3--xx--3--3-3--xxxx-6--6-6-------|
E|-3--3-3--xxxx--1--1-1--xx--x--x-x--xxxx-x--x-x-------|



Lyrics:

VERSE:
I hear they're building casinos
A few miles from my old house
I think I'll take all my money
See if I can figure it out

PRE CHORUS:
So I sold my guitar
It's no use to me
If I can't be a star
I will be the next best thing

CHORUS:
I thought by now that I would be a king and you'd be my queen
I thought by now the world would have stopped just to notice me

VERSE:
Maybe I'll join the navy
They're set to attack
Why would I fight for a country that doesn't even have my back

PRE CHORUS
So I sold my car
It's no use to me
Wherever you go there you are
And you aren't with me

CHORUS: 
I thought by now that I would be a king and you'd be my queen
I thought by now the world would have stopped just to notice me 
Добавлено: 27.08.2013
Другие материалы по этой песне:
  • Аккорды и текст

Страница создана 27.08.2013
http://primanota.ru/vast/i-thought-by-now-chords.htm
Привет, Гость.
Предлагаем пройти революционный курс по гитаре.
Подарок от PrimaNota.Ru, забирай!