PrimaNota.ru - самый крупный в мире бесплатный архив песенных текстов, аккордов, табулатур и нот


Vast - Dedicate A Place For Me - таба, видео

Регистрация Запомнить меня
Войти через:  Facebook Google Twitter Vk Yandex Mail.ru

Vast - Dedicate A Place For Me - таба, видео

Печатать
Просмотров: 80
VAST	
Dedicate (A Place for Me)
Tabbed by GOLDZWEIG

Intro

Acoustic 1
e|----------------------------------------------------|
B|----------------------------------------------------|
G|-------------4444444444444444-22222222222-444444444-|
D|--4444444444-4444444444444444-22222222222-444444444-|
A|--4444444444-2222222222222222-00000000000-222222222-| Play many times
E|--2222222222----------------------------------------|

Acoustic 2
e|--5-4---5-4-2-4-5-----|
B|----------------------|
G|----------------------|
D|----------------------|
A|----------------------|
E|----------------------|


Play this before chorus
e|----------------------|
B|----------------------|
G|---2-44-2-44----------|
D|---2-44-2-44----------|
A|---2-22-2-22----------|
E|----------------------|

Chorus

Main riff
       A5        Em       B5      F#5       A5      Em      B5       F#5
e|--------------------------------------------------------------------------|
B|--------------------------------------------------------------------------|
G|--------------------------------------------------------------------------|
D|---7777777--2222222--9999999--44444444--777777--222222--9999999--44444444-|
A|---7777777--2222222--9999999--44444444--777777--222222--9999999--44444444-|
E|---5555555--0000000--7777777--22222222--555555--000000--7777777--22222222-|


"I saw you flowing to me....."
e|----------------------|
B|----------------------|
G|----------------------|
D|--44444444------------|
A|--44444444------------|
E|--22222222------------|


Violin (Arrangement for guitar)

e|-------------------------|
B|---3-2---5--3-2---2-3-2--|
G|-------4--------4--------|
D|-------------------------|
A|-------------------------|
E|-------------------------|

Lyrics: (not officialy released, so, i made it by myself)

He won't say, that I loved you too much
Because I think about you now
And it's been two years

Images are within
Play again and again inside my head
I hope you fall, I hope you fail

If you ever loved me
If you ever knew me
You should know that i'm gone

Have you ever needed
Have you ever needed
Dedicate a place for me

I saw you flowing to me like poison
And no one can see
And no one can feel
I'm too small, i'm too big,
Too blind to see you shining way over head
I hope you fall

If you ever loved me
If you ever knew me
You should know that i'm gone

Have you ever needed
Have you ever needed
Dedicate a place for me

I know, and I forgot to maybe it's like
I never have teached how to love (ainda obscuro)

Hmmmmmmmmmmmm

If you ever loved me
If you ever knew me
You should know that i'm gone

Have you ever needed
Have you ever needed
Dedicate a place for me

You should know that i'm gone
Have you ever needed
Have you ever needed
Dedicate a place for me

Добавлено: 04.07.2013
Другие материалы по этой песне:
  • Аккорды и текст

Страница создана 04.07.2013
http://primanota.ru/vast/dedicate-a-place-for-me-chords.htm
Привет, Гость.
Предлагаем пройти революционный курс по гитаре.
Подарок от PrimaNota.Ru, забирай!