PrimaNota.ru - самый крупный в мире бесплатный архив песенных текстов, аккордов, табулатур и нот


Василий К. - Василий К. & Интеллигенты - Дитя - аккорды и текст, видео

Регистрация Запомнить меня
Войти через:  Facebook Google Twitter Vk Yandex Mail.ru

Василий К. - Василий К. & Интеллигенты - Дитя - аккорды и текст, видео

Печатать
Просмотров: 207
Василий К. & Интеллигенты - Дитя
Василий К.
(капо 2 лад)

1|--------5----3-5-3-0---0---0-0-1-0---------------0-------0----------
2|------------------------------------------3-1-0-1-3------------1-0-1--
3|--~2---------------------------------------------------------------------


1|-------------3-5-3-0---0---0-0-1-0------------------------------------
2|-------------------------------------------3-1-0-1-0--------------------
3|-----2-2-----------------------------------------------2-----------------

далее идет бой и соло одновременно в такой последовательности:

____Am__D5__G________Am__Am___Dm______G____Am
e|----------5-----3---5---3-----0----0-------1--0---------------0---------
b|----1-----3----0--------------1-0h1-------3----3-1---0-1-0-1---------
g|----2-----2----0--------------2----2-------2-----------0------2---------
d|----2-----0----0----------------------------0-----------0------2---------
a|----0-----------2--------------0---0--------------------2------0---------
e|----------------3----------------------------------------3-----------------

куплет и припев:
Am|Dm||G|Am

Я - дитя на руках у мужчины, я ношу его смерть у себя в глубине.
Я смотрю на перрон, и я вижу как мой старый отец улыбается мне.
Я - цветок, я пророс сквозь помойку и открыл своё сердце золотой вышине
И узрел, как идёт, задумчиво-тонко, девочка-дочь с моей смертью в руке.

Я - тот вор, что украл твою юность. Убери свой свисток, я никуда не бегу.
Загляни в мой мешок - правда, ужас? Есть за это статья, но я её не боюсь.
Я - судья со стальными глазами, для меня ты есть то, что рассказали враги твои.
Всем - встать. Оглашается список бесконечных и жестоких преступлений любви.

Помогу! Скинь мне инфу на мыло. Когда всё будет ясно, я тебе отзвонюсь.
Извини. Меня бомбой убило. Сделал то, что успел, ты знаешь всё наизусть.
Имена на бумажках в карманах, телефоны людей, которых ты повстречал
На пути в никуда ниоткуда, в тумане - это твой непобедимый и бездонный провал.
Я - река, доставляю до моря всё дерьмо, что свалилось и пролилось в меня.
Это что, моё мелкое горе. То ли дело - мировая катастрофа твоя.

Я - последняя сотня в пол-третьего ночи, я - невнятное слово на чужом языке,
Я - new messages ноль, я - гашиш на таможне, я живу в твоей йони и в твоём рюкзаке.
У машин в этом городе нечистая совесть, они хнычут во сне и мешают мне спать,
Игуана Вольфганг проснулась и бродит, мыши просят морковки, придётся вставать.

Вот и всё. Вот и новое утро. Я рождаюсь, когда ты открываешь глаза.
И как весь мир, равнодушно-ненужный, я опять с тобой и я люблю тебя.
Добавлено: 25.09.2015
http://primanota.ru/vasilii-k/vasilii-k-and-intelligenty-ditya-chords.htm
Привет, Гость.
Предлагаем пройти революционный курс по гитаре.
Подарок от PrimaNota.Ru, забирай!